>
 >
Carry The Cross

Carry The Cross Guitar Tabs

Arch Enemy - Carry The Cross chords, tabs, tablatures, lyrics

Guitar lessons | Add/correct | Request | Top 50 tabs Artists:  A B C D E F G H I J K L M N O P Q R S T U V W X Y Z 0-9

Carry The Cross Guitar Tabs – Arch Enemy

CD, Sheet music, Poster

Do you like Carry The Cross? Share with your friends now
Bass TabsBass Tabs v2TabsTabs v2Tabs v3Tabs v4
----------------------------------------------------------------------------
----------------------------------------------------------------------------



If you have any questions or corrections, leave a comment. Thank you!




Guitar I - (C F Bb Eb G C) "Lead"
Guitar II - (C F Bb Eb G C) "Rhythm"



Guitar I:
|-/7-0-7-0-7-0-7-0-7-0-7-0-7-0-7-0-5-0-5-0-5-0-5-0-3-0-3-0-2-0-2-0-|
|------------------------------------------------------------------|
|------------------------------------------------------------------|
|------------------------------------------------------------------|
|------------------------------------------------------------------|
|------------------------------------------------------------------|

|-/7-0-7-0-7-0-7-0-7-0-7-0-7-0-7-0-5-0-5-0-5-0-5-0-3-0-3-0-2-0-2-0-|
|------------------------------------------------------------------|
|------------------------------------------------------------------|
|------------------------------------------------------------------|
|------------------------------------------------------------------|
|------------------------------------------------------------------|

|-/7-0-7-0-7-0-7-0-7-0-7-0-7-0-7-0-5-0-5-0-5-0-5-0-3-0-3-0-2-0-2-0-|
|------------------------------------------------------------------|
|------------------------------------------------------------------|
|------------------------------------------------------------------|
|------------------------------------------------------------------|
|------------------------------------------------------------------|

|-/7-0-7-0-7-0-7-0-7-0-7-0-7-0-7-0-5-0-5-0-5-0-5-0-3-0-3-0-2-0-2-0-|
|------------------------------------------------------------------|
|------------------------------------------------------------------|
|------------------------------------------------------------------|
|------------------------------------------------------------------|
|------------------------------------------------------------------|


Guitar II:
|-----------------------------------------------------------------|
|-----------------------------------------------------------------|
|-----------------------------------------------------------------|
|-----------------------------------------------------------------|
|-------------------------3-3-3-3-0-0-0-0-0-0-0-0-6-6-6-6-6-6-6-6-|
|-0-0-0-0-0-0-0-0-2-2-2-2-----------------------------------------|

|-----------------------------------------------------------------|
|-----------------------------------------------------------------|
|-----------------------------------------------------------------|
|-----------------------------------------------------------------|
|-------------------------3-3-3-3-0-0-0-0-0-0-0-0-6-6-6-6-6-6-6-6-|
|-0-0-0-0-0-0-0-0-2-2-2-2-----------------------------------------|

|-----------------------------------------------------------------|
|-----------------------------------------------------------------|
|-----------------------------------------------------------------|
|-----------------------------------------------------------------|
|-------------------------3-3-3-3-0-0-0-0-0-0-0-0-6-6-6-6-6-6-6-6-|
|-0-0-0-0-0-0-0-0-2-2-2-2-----------------------------------------|

|-----------------------------------------------------------------|
|-----------------------------------------------------------------|
|-----------------------------------------------------------------|
|-----------------------------------------------------------------|
|-------------------------3-3-3-3-0-0-0-0-0-0-0-0-6-6-6-6-6-6-6-6-|
|-0-0-0-0-0-0-0-0-2-2-2-2-----------------------------------------|



Guitar I
|--------5~------7~------4~-----5~------5~--------8~-------3~------0~-|
|------6~------9~------5~-----6~------6~-------10~-------4~------6~---|
|----7~------9~------4~-----7~------7~------10~--------3~------7~-----|
|--0~------0~------0~-----0~------0~------0~---------0~------0~-------|
|---------------------------------------------------------------------|
|---------------------------------------------------------------------|

|--------5~------7~------4~-----5~------5~--------8~-------3~------0~-|
|------6~------9~------5~-----6~------6~-------10~-------4~------6~---|
|----7~------9~------4~-----7~------7~------10~--------3~------7~-----|
|--0~------0~------0~-----0~------0~------0~---------0~------0~-------|
|---------------------------------------------------------------------|
|---------------------------------------------------------------------|


Guitar II
|--------|
|--------|
|--------|
|--7~----|
|--5~----|
|--------|



Guitar I  (Listen for timing, for when to hit each chord)
|----------------------------------------------------------|
|----------------------------------------------------------|
|----------------------------------------------------------|
|----------------------------------------------------------|
|-3-3-3--3-3-5--7-7-7--4-4-4--3-3-3--3-3-5--7-7-7--4-4-4---|
|-1-1-1--1-1-3--5-5-5--2-2-2--1-1-1--1-1-3--5-5-5--2-2-2---|


Guitar II
|---------------------------------------------------------|
|---------------------------------------------------------|
|-555--444--------555--44------555--444-------666--44-----|
|-----------777------------55------------777-----------77-|
|-333--222--------333--22------333--222-------444--22-----|
|-----------555------------33------------555-----------55-|



Guitar I
|-/7-0-7-0-7-0-7-0-7-0-7-0-7-0-7-0-5-0-5-0-5-0-5-0-3-0-3-0-2-0-2-0-|
|------------------------------------------------------------------|
|------------------------------------------------------------------|
|------------------------------------------------------------------|
|------------------------------------------------------------------|
|------------------------------------------------------------------|

|-/7-0-7-0-7-0-7-0-7-0-7-0-7-0-7-0-5-0-5-0-5-0-5-0-3-0-3-0-2-0-2-0-|
|------------------------------------------------------------------|
|------------------------------------------------------------------|
|------------------------------------------------------------------|
|------------------------------------------------------------------|
|------------------------------------------------------------------|

|-/7-0-7-0-7-0-7-0-7-0-7-0-7-0-7-0-5-0-5-0-5-0-5-0-3-0-3-0-2-0-2-0-|
|------------------------------------------------------------------|
|------------------------------------------------------------------|
|------------------------------------------------------------------|
|------------------------------------------------------------------|
|------------------------------------------------------------------|


Guitar II
|-----------------------------------------------------------------|
|-----------------------------------------------------------------|
|-----------------------------------------------------------------|
|-----------------------------------------------------------------|
|-------------------------3-3-3-3-0-0-0-0-0-0-0-0-6-6-6-6-6-6-6-6-|
|-0-0-0-0-0-0-0-0-2-2-2-2-----------------------------------------|

|-----------------------------------------------------------------|
|-----------------------------------------------------------------|
|-----------------------------------------------------------------|
|-----------------------------------------------------------------|
|-------------------------3-3-3-3-0-0-0-0-0-0-0-0-6-6-6-6-6-6-6-6-|
|-0-0-0-0-0-0-0-0-2-2-2-2-----------------------------------------|

|-----------------------------------------------------------------|
|-----------------------------------------------------------------|
|-----------------------------------------------------------------|
|-----------------------------------------------------------------|
|-------------------------3-3-3-3-0-0-0-0-0-0-0-0-6-6-6-6-6-6-6-6-|
|-0-0-0-0-0-0-0-0-2-2-2-2-----------------------------------------|


Guitar I
|--------5~------7~------4~-----5~------5~--------8~-------3~------0~-|
|------6~------9~------5~-----6~------6~-------10~-------4~------6~---|
|----7~------9~------4~-----7~------7~------10~--------3~------7~-----|
|--0~------0~------0~-----0~------0~------0~---------0~------0~-------|
|---------------------------------------------------------------------|
|---------------------------------------------------------------------|

|--------5~------7~------4~-----5~------5~--------8~-------3~------0~-|
|------6~------9~------5~-----6~------6~-------10~-------4~------6~---|
|----7~------9~------4~-----7~------7~------10~--------3~------7~-----|
|--0~------0~------0~-----0~------0~------0~---------0~------0~-------|
|---------------------------------------------------------------------|
|---------------------------------------------------------------------|


Guitar II
|--------|
|--------|
|--------|
|--7~----|
|--5~----|
|--------|



Guitar I  (Listen for timing, for when to hit each chord)
|----------------------------------------------------------|
|----------------------------------------------------------|
|----------------------------------------------------------|
|----------------------------------------------------------|
|-3-3-3--3-3-5--7-7-7--4-4-4--3-3-3--3-3-5--7-7-7--4-4-4---|
|-1-1-1--1-1-3--5-5-5--2-2-2--1-1-1--1-1-3--5-5-5--2-2-2---|


Guitar II
|---------------------------------------------------------|
|---------------------------------------------------------|
|-555--444--------555--44------555--444-------666--44-----|
|-----------777------------55------------777-----------77-|
|-333--222--------333--22------333--222-------444--22-----|
|-----------555------------33------------555-----------55-|




Guitar I
|-/7-0-7-0-7-0-7-0-7-0-7-0-7-0-7-0-5-0-5-0-5-0-5-0-3-0-3-0-2-0-2-0-|
|------------------------------------------------------------------|
|------------------------------------------------------------------|
|------------------------------------------------------------------|
|------------------------------------------------------------------|
|------------------------------------------------------------------|

|-/7-0-7-0-7-0-7-0-7-0-7-0-7-0-7-0-5-0-5-0-5-0-5-0-3-0-3-0-2-0-2-0-|
|------------------------------------------------------------------|
|------------------------------------------------------------------|
|------------------------------------------------------------------|
|------------------------------------------------------------------|
|------------------------------------------------------------------|

|-/7-0-7-0-7-0-7-0-7-0-7-0-7-0-7-0-5-0-5-0-5-0-5-0-3-0-3-0-2-0-2-0-|
|------------------------------------------------------------------|
|------------------------------------------------------------------|
|------------------------------------------------------------------|
|------------------------------------------------------------------|
|------------------------------------------------------------------|

|-/7-0-7-0-7-0-7-0-7-0-7-0-7-0-7-0-5-0-5-0-5-0-5-0-3-0-3-0-2-0-2-0-|
|------------------------------------------------------------------|
|------------------------------------------------------------------|
|------------------------------------------------------------------|
|------------------------------------------------------------------|
|------------------------------------------------------------------|


Guitar II
|-----------------------------------------------------------------|
|-----------------------------------------------------------------|
|-----------------------------------------------------------------|
|-----------------------------------------------------------------|
|-------------------------3-3-3-3-0-0-0-0-0-0-0-0-6-6-6-6-6-6-6-6-|
|-0-0-0-0-0-0-0-0-2-2-2-2-----------------------------------------|

|-----------------------------------------------------------------|
|-----------------------------------------------------------------|
|-----------------------------------------------------------------|
|-----------------------------------------------------------------|
|-------------------------3-3-3-3-0-0-0-0-0-0-0-0-6-6-6-6-6-6-6-6-|
|-0-0-0-0-0-0-0-0-2-2-2-2-----------------------------------------|

|-----------------------------------------------------------------|
|-----------------------------------------------------------------|
|-----------------------------------------------------------------|
|-----------------------------------------------------------------|
|-------------------------3-3-3-3-0-0-0-0-0-0-0-0-6-6-6-6-6-6-6-6-|
|-0-0-0-0-0-0-0-0-2-2-2-2-----------------------------------------|

|-----------------------------------------------------------------|
|-----------------------------------------------------------------|
|-----------------------------------------------------------------|
|-----------------------------------------------------------------|
|-------------------------3-3-3-3-0-0-0-0-0-0-0-0-6-6-6-6-6-6-6-6-|
|-0-0-0-0-0-0-0-0-2-2-2-2-----------------------------------------|



Guitar I
|---------------------------------------------------------|
|---------------------------------------------------------|
|-------------------------4~-------------4~------------2~-|
|----/7--9--10~----/5--7----------/5--7---------/4--5-----|
|-0-------------------------------------------------------|
|----------------0-------------3--------------2-----------|


|---------------------------------------------------------|
|---------------------------------------------------------|
|-------------------------4~-------------4~------------2~-|
|----/7--9--10~----/5--7----------/5--7---------/4--5-----|
|-0-------------------------------------------------------|
|----------------0-------------3--------------2-----------|



Guitar II
|--------------------------------------------------------|
|------------------------3~------------------------------|
|----/5--7--9~----/4--5-----------------4~-----/2--4--5~-|
|--------------------------------/4--5-------------------|
|-0------------------------------------------------------|
|---------------0--------------3-------------2-----------|


|--------------------------------------------------------|
|------------------------3~------------------------------|
|----/5--7--9~----/4--5-----------------4~-----/2--4--5~-|
|--------------------------------/4--5-------------------|
|-0------------------------------------------------------|
|---------------0--------------3-------------2-----------|




Guitar I
|-12--14---15----15---14--12----12---14---15--/-14---15---14---14------|
|----------------------------------------------------------------------|
|(9)-(11)-(12)--(12)-(11)-(9)---(9)-(11)-(12)-/(11)-(12)-(11)-(11)-----|
|----------------------------------------------------------------------|
|----------------------------------------------------------------------|
|----------------------------------------------------------------------|


|-12-14-15~---15--14--12~---12--14--15--17b19--17/15\17b19~----|
|-x------------------------------------------------------------|
|-9--11-12~---12--11--9~----9---11--12--14b17--14/12\14b17~----|
|--------------------------------------------------------------|
|--------------------------------------------------------------|
|--------------------------------------------------------------|


Guitar II
|--------------------------------------------------------------------------|
|--------------------------------------------------------------------------|
|--------------------------------------------------------------------------|
|--------------------------------------------------------------------------|
|-10-10b12(10)-9-9b10(9)--7-7b9(7)-6~--10-10b12(10)--9-9b10(9)-7-7b9(7)-6~-|
|--------------------------------------------------------------------------|


Guitar I
|-----------------------------18-------------------------------------------|
|-18b20~-18b20~-15-18b20-(18)----18~---15-18--15h18p15---------------------|
|------------------------------------------------------17-15-17~-15--17----|
|--------------------------------------------------------------------------|
|--------------------------------------------------------------------------|
|--------------------------------------------------------------------------|

|-----------------------|
|-----------------------|
|-15h17p15--------------|
|----------17-15-17~----|
|-----------------------|
|-----------------------|


|-------------15--18--20--------------15--18--20-------------------|
|-15--18--20--------------15--18--20--------------15--18--20-------|
|------------------------------------------------------------------|
|------------------------------------------------------------------|
|------------------------------------------------------------------|
|------------------------------------------------------------------|

|-15-18-20----------15-18-20----------15-18-20----------15-18-20-----------|
|----------15-18-20----------15-18-20----------15-18-20----------15-18-20--|
|--------------------------------------------------------------------------|
|--------------------------------------------------------------------------|
|--------------------------------------------------------------------------|
|--------------------------------------------------------------------------|



|-15-18-20----------15-18-20----------15-18-20-----------------------|
|----------15-18-20----------15-18-20----------15-18-20--------------|
|--------------------------------------------------------------------|
|--------------------------------------------------------------------|
|--------------------------------------------------------------------|
|--------------------------------------------------------------------|

|-20-20-20-20-20-20-20b22-20b22-20b21~-|
|--------------------------------------|
|--------------------------------------|
|--------------------------------------|
|--------------------------------------|
|--------------------------------------|


Guitar II
|----------------------------------------------------------------------|
|----------------------------------------------------------------------|
|----------------------------------------------------------------------|
|----------------------------------------------------------------------|
|-13-13b15(13)-12-12b13(12)-10-10b12(10)-9~-13-13b15(13)-12-12b113(12)-|
|----------------------------------------------------------------------|

|--------------|
|--------------|
|--------------|
|--------------|
|-10b12(10)-9~-|
|--------------|


Guitar I
|-----------------------------------------------------------------|
|-----------------------------------------------------------------|
|-----------------------------------------------------------------|
|-----------------------------------------------------------------|
|-------------------------3-3-3-3-0-0-0-0-0-0-0-0-6-6-6-6-6-6-6-6-|
|-0-0-0-0-0-0-0-0-2-2-2-2-----------------------------------------|

|-----------------------------------------------------------------|
|-----------------------------------------------------------------|
|-----------------------------------------------------------------|
|-----------------------------------------------------------------|
|-------------------------3-3-3-3-0-0-0-0-0-0-0-0-6-6-6-6-6-6-6-6-|
|-0-0-0-0-0-0-0-0-2-2-2-2-----------------------------------------|

|-----------------------------------------------------------------|
|-----------------------------------------------------------------|
|-----------------------------------------------------------------|
|-----------------------------------------------------------------|
|-------------------------3-3-3-3-0-0-0-0-0-0-0-0-6-6-6-6-6-6-6-6-|
|-0-0-0-0-0-0-0-0-2-2-2-2-----------------------------------------|

|-----------------------------------------------------------------|
|-----------------------------------------------------------------|
|-----------------------------------------------------------------|
|-----------------------------------------------------------------|
|-------------------------3-3-3-3-0-0-0-0-0-0-0-0-6-6-6-6-6-6-6-6-|
|-0-0-0-0-0-0-0-0-2-2-2-2-----------------------------------------|




Guitar II
|-----------------------------------------------------------------|
|-----------------------------------------------------------------|
|-----------------------------------------------------------------|
|-----------------------------------------------------------------|
|-------------------------3-3-3-3-0-0-0-0-0-0-0-0-6-6-6-6-6-6-6-6-|
|-0-0-0-0-0-0-0-0-2-2-2-2-----------------------------------------|

|-----------------------------------------------------------------|
|-----------------------------------------------------------------|
|-----------------------------------------------------------------|
|-----------------------------------------------------------------|
|-------------------------3-3-3-3-0-0-0-0-0-0-0-0-6-6-6-6-6-6-6-6-|
|-0-0-0-0-0-0-0-0-2-2-2-2-----------------------------------------|

|-----------------------------------------------------------------|
|-----------------------------------------------------------------|
|-----------------------------------------------------------------|
|-----------------------------------------------------------------|
|-------------------------3-3-3-3-0-0-0-0-0-0-0-0-6-6-6-6-6-6-6-6-|
|-0-0-0-0-0-0-0-0-2-2-2-2-----------------------------------------|

|-----------------------------------------------------------------|
|-----------------------------------------------------------------|
|-----------------------------------------------------------------|
|-----------------------------------------------------------------|
|-------------------------3-3-3-3-0-0-0-0-0-0-0-0-6-6-6-6-6-6-6-6-|
|-0-0-0-0-0-0-0-0-2-2-2-2-----------------------------------------|



Guitar I
|-/7-0-7-0-7-0-7-0-7-0-7-0-7-0-7-0-5-0-5-0-5-0-5-0-3-0-3-0-2-0-2-0-|
|------------------------------------------------------------------|
|------------------------------------------------------------------|
|------------------------------------------------------------------|
|------------------------------------------------------------------|
|------------------------------------------------------------------|

|-/7-0-7-0-7-0-7-0-7-0-7-0-7-0-7-0-5-0-5-0-5-0-5-0-3-0-3-0-2-0-2-0-|
|------------------------------------------------------------------|
|------------------------------------------------------------------|
|------------------------------------------------------------------|
|------------------------------------------------------------------|
|------------------------------------------------------------------|

|-/7-0-7-0-7-0-7-0-7-0-7-0-7-0-7-0-5-0-5-0-5-0-5-0-3-0-3-0-2-0-2-0-|
|------------------------------------------------------------------|
|------------------------------------------------------------------|
|------------------------------------------------------------------|
|------------------------------------------------------------------|
|------------------------------------------------------------------|

|-/7-0-7-0-7-0-7-0-7-0-7-0-7-0-7-0-5-0-5-0-5-0-5-0-3-0-3-0-2-0-2-0-|
|------------------------------------------------------------------|
|------------------------------------------------------------------|
|------------------------------------------------------------------|
|------------------------------------------------------------------|
|------------------------------------------------------------------|


Guitar II
|-----------------------------------------------------------------|
|-----------------------------------------------------------------|
|-----------------------------------------------------------------|
|-----------------------------------------------------------------|
|-------------------------3-3-3-3-0-0-0-0-0-0-0-0-6-6-6-6-6-6-6-6-|
|-0-0-0-0-0-0-0-0-2-2-2-2-----------------------------------------|


|-----------------------------------------------------------------|
|-----------------------------------------------------------------|
|-----------------------------------------------------------------|
|-----------------------------------------------------------------|
|-------------------------3-3-3-3-0-0-0-0-0-0-0-0-6-6-6-6-6-6-6-6-|
|-0-0-0-0-0-0-0-0-2-2-2-2-----------------------------------------|


|-----------------------------------------------------------------|
|-----------------------------------------------------------------|
|-----------------------------------------------------------------|
|-----------------------------------------------------------------|
|-------------------------3-3-3-3-0-0-0-0-0-0-0-0-6-6-6-6-6-6-6-6-|
|-0-0-0-0-0-0-0-0-2-2-2-2-----------------------------------------|


|-----------------------------------------------------------------*|
|-----------------------------------------------------------------*|
|-----------------------------------------------------------------*|
|-----------------------------------------------------------------*|
|-------------------------3-3-3-3-0-0-0-0-0-0-0-0-6-6-6-6-6-6-6-6-*|
|-0-0-0-0-0-0-0-0-2-2-2-2-----------------------------------------*|





| /  slide up
| \  slide down
| h  hammer-on
| p  pull-off
| ~  vibrato
| +  harmonic
| x  Mute note
============================================================================





Comments


Popular Arch Enemy tabs & chords
Burning Bridges 1 Tabs
Dark Of The Sun Tabs
Despicable Heroes 1 Tabs
Diva Satanica Tabs
Enter The Machine Tabs
Eureka 1 Tabs
Skeleton Dance Tabs
Snow Bound 3 Tabs
The Last Enemy Intro Tabs
We Will Rise Tabs


Song lyrics



↑ Back to top | Tablatures and chords are parodies/interpretations of the original songs. You may use it for private study, scholarship, research or language learning purposes only
© 2014 AZChords.com Contact us | Privacy policy | DMCA | Add/correct tabs | Request tabs | Top 50 tabs