>
 >
Colder Than My Heart If You Can Imagine

Colder Than My Heart If You Can Imagine Guitar Tabs

A Day To Remember - Colder Than My Heart If You Can Imagine chords, tabs, tablatures, lyrics

Guitar lessons | Add/correct | Request | Top 50 tabs Artists:  A B C D E F G H I J K L M N O P Q R S T U V W X Y Z 0-9

Colder Than My Heart If You Can Imagine Guitar Tabs – A Day To Remember

CD, Sheet music, Poster

Do you like Colder Than My Heart If You Can Imagine? Share with your friends now
Bass TabsChordsChords v2TabsTabs v2Tabs v3UkuleleUkulele v2
---------------------------------------------------------------
---------------------------------------------------------------

Tuning: Drop C

D|-------------------------|
A|-------------------------|
F|--------------5-----2----|x2
C|--3-----7-----3-----3----|
G|--5-----8-----0-----0----|
C|-------------------------|

Guitar 1
D|--------------------------------------------|
A|--------------------------------------------|
F|-------------22225555-----------------------|x4
C|-------------33333333-101010101010-777777---|
G|---5-3-2--00000000000-8-8-8-8-8-8--555555---|
C|---5-3-2--00000000000-8-8-8-8-8-8--555555---|
     . . .
Guitar 2  play twice  (a few notes are missing, figure it out)
D|--------------------------------------------|
A|--------------------------------------------|
F|--------------------------------------------|
C|--------7-----8p7---------7-------7h8p7-----|
G|---5-55--5-55-----8---------------------8---|
C----------------------8-88-----5-5-----------|

D|------------------------------------------------|
A|------------------------------------------------|
F|------------------------------------------------|
C|--------7-----8p7---------7-7h8p7---------------|
G|---5-55--5-55-----8-------------------7-7h8p7---|
C----------------------8-88---------5-5-----------|


D|-----------------------------------------|
A|-----------------------------------------|
F|-----------------------------------------|x4
C|---0------7-----------------7--5---------|
G|---0-000-----000-0000-8-88-----5-55555---|
C|---0-000-----000-0000-8-88-----5-55555---|
       ...     ... ....   ..       .....

  "let's live a lie..."
D|------------------------|
A|------------------------|
F|------------------------|
C|--8~------5~------------|
G|--8~------5~-----5------|
C|--8~------5~-----5------|
                   .
Chorus
D|---------------------------------------------------------|
A|---------------------------------------------------------|
F|---------------------------------------------------------|x2
C|---------------------------------------------------------|
G|---000000000000-333333333333-555555555555-888888888888---|
C|---000000000000-333333333333-555555555555-888888888888---|


Repeat Intro, verse & chorus

Breakdown
D|-----------------------------------|
A|-----------------------------------|
F|-----------------------------------|
C|-----------------------------------|
G|--00000---00000---00000---00000----|
C|--00000---00000---00000---00000----|
    .....   .....   .....   .....

Guitar 1   "from the top of the world..."
D|---------------------------------------|
A|---------------------------------------|
F|---------------------------------------|
C|---------------------------------------|
G|--0000000000000000-88888888-55555555---|
C|--0000000000000000-88888888-55555555---|
    ................ ........ ........
Guitar 2
D|-----------------------------------|
A|-----------------------------------|
F|---1010101010101010-14141414\12----|
C|---x-x-x-x-x-x-x-x--x-x-x-x--x-----|
G|---8-8-8-8-8-8-8-8--12121212\10----|
C|-----------------------------------|

D|----------------------------------------|
A|----------------------------------------|
F|---1010101010101010-1717171717171717----|
C|---x-x-x-x-x-x-x-x--x-x-x-x-x-x-x-x-----|
G|---8-8-8-8-8-8-8-8--1515151515151515----|
C|----------------------------------------|
3:00 guitar 1
D|-------------------------------------------------------------|
A|-------------------------------------------------------------|
F|-------------------------------------------------------------|x2
C|-----7----7---7----7----7---7-----8----8---8----5----5---5---|
G|--00-5-00-5-0-5-00-5-00-5-0-5--88-8-88-8-8-8-55-5-55-5-5-5---|
C|--00---00---0---00---00---0----88-8-88-8-8-8-55-5-55-5-5-5---|
   ..    ..   .   ..   ..   .    ..   ..   .   ..   ..   .
     guitar 2
D|-------------8-----------8-----|
A|---5-6-8-5-6---5-6-8-5-6-------|
F|-------------------------------|
C|-------------------------------|
G|-------------------------------|
C|-------------------------------|

  "i'm still singing whoa..."
D|---------------------------|
A|---------------------------|
F|---------------------------|
C|---3~----------------------|
G|---5~----------------------|
C|---------------------------|

Repeat chorus x2

The End.

************************************

| .   palm mute
| /   slide up
| \   slide down
| h   hammer-on
| p   pull-off
| ~   vibrato
| +   harmonic
| x   Mute note
| b   Bend
| pb  Pre-bend
| br  Bend release
| pbr Pre-bend release
| brb Bend release bend

************************************





Comments


Popular A Day To Remember tabs & chords
If It Means A Lot To You 3 Bass Tabs
Mr Highways Thinking About The End Bass Tabs
Your Way With Words Is Through Silence Bass Tabs
Colder Than My Heart If You Can Imagine 2 Chords
Its Complicated 1 Chords
Danger In Starting A Fire Tabs
Heartless 2 Tabs
Speak Of The Devil Tabs
You Had Me At Hello 2 Tabs
Another Song About The Weekend Ukulele


Song lyrics



↑ Back to top | Tablatures and chords are parodies/interpretations of the original songs. You may use it for private study, scholarship, research or language learning purposes only
© 2014 AZChords.com Contact us | Privacy policy | DMCA | Add/correct tabs | Request tabs | Top 50 tabs