» » »

A Day To Remember, All Signs Point To Lauderdale Bass tabs (ver.1)

Artists:  A B C D E F G H I J K L M N O P Q R S T U V W X Y Z # 

All Signs Point To Lauderdale Bass tabs (ver.1)

A Day To Remember Tabs
Rating:
5/5 (1 vote)
Hard to play? Try these video lessons and learn fast.
                This Is My First Bass Tab, I've Made This For My Girlfriend But Obviously I Want 
Everyone To See This, There's Only One Other Bass TAB For This Song And I Didn't 
Like It, So Here, ENJOY !! >.<
-----------------------------------------------------------------
All Signs Point to Lauderdale - ADTR
-----------------------------------------------------------------


Tuning:Drop C

| /  slide up
| \  slide down
| h  hammer-on
| p  pull-off
| ~  vibrato
| +  harmonic
| x  Mute note
| () Optional

(Guitar Intro) You Don't HAVE To Play This, But You Can.

F:--------------------------------------------|
C:--------------------------------------------|
G:--------(3-3333333)-------------------------|
C:--(33333)------------(7-7777---5-5555555)---|

F:--------------------------------------------|
C:--------------------------------------------|
G:----------(3-3333333)-----------------------|
C:--(3-33333)-------------(5-5--5-5-5--5-5-5)-|

F:---------------|
C:---------------|
G:---------------|
C:--(5~)---------|

                               
F:--------------------------------------------|
C:--------------------------------------------|
G:--(5h7p5)-3-3-33-3-3-3-33-3-----------------| x2
C:--------------------------------------------|

F:-------------------| 
C:-------------------|
G:--/10-10-1010-10---|
C:-------------------| Second Time Play G:--1010-10\88-8\77-7\55

   ^^^ x2

F:---------------------------| 
C:---------------------------|
G:---------------------------|
C:--333~-3-3------777~-77----|

F:---------------------------| 
C:---------------------------|
G:---------------------------|
C:--333~-3-3------777~-77----|

F:---------------------------| 
C:---------------------------|
G:---------------------------|
C:---/5-55-555---------------|

F:---------------------------| 
C:---------------------------|
G:--3-3\101010-1010-10-10~---|
C:---------------------------|

F:---------------------------| 
C:---------------------------|
G:--3-3\101010--5-555~(5h7p5)|
C:---------------------------|

F:---------------------------| 
C:---------------------------|
G:--3-3\101010-1010-10-10~---|
C:---------------------------|

F:---------------------------| 
C:---------------------------|
G:---555-55-5-5~-------------|
C:---------------------------|

F:--------------------------------------------|
C:--------------------------------------------|
G:--(5h7p5)-3-3-33-3-3-3-33-3-----------------| x2
C:--------------------------------------------|

F:-------------------| 
C:-------------------|
G:--/10-10-1010-10---|
C:-------------------| Second Time Play G:--1010-10\88-8\77-7\55
   ^^^ x2
F:---------------------------| 
C:---------------------------|
G:---------------------------|
C:--333~-3-3------777~-77----|

F:---------------------------| 
C:---------------------------|
G:---------------------------|
C:--333~-3-3------777~-77----|

F:---------------------------| 
C:---------------------------|
G:---------------------------|
C:---/5-55-555---------------|

F:---------------------------| 
C:---------------------------|
G:--3-3\101010-1010-10-10~---|
C:---------------------------|

F:---------------------------| 
C:---------------------------|
G:--3-3\101010--5-555~(5h7p5)|
C:---------------------------|

F:---------------------------| 
C:---------------------------|
G:--3-3\101010-1010-10-10~---|
C:---------------------------|

F:---------------------------| 
C:---------------------------|
G:---555-55-5-5~-------------|
C:---------------------------|

F:--------------------------------------------|
C:--------------------------------------------|
G:--(5h7p5)-3-3-33-3-3-3-33-3-----------------| x2
C:--------------------------------------------|

F:-------------------| 
C:-------------------|
G:--/10-10-1010-10---|
C:-------------------| Second(and 4th)Time Play G:--1010-10\88-8\77-7\55
   ^^^ x4

F:--------------------------------------------|
C:--------------------------------------------|
G:--------------------------------------------|
C:--77777-77--55555-55--33333-33-333333333----|

F:--------------------------------------------|
C:--------------------------------------------|
G:--------------------------------------------|
C:--777-777-77--555-555-55--333-333-33-33333--|

NO BASS Altough I Think It's Heavy Chuggin' And Goes Something Like This,
F:----------------------------|
C:----------------------------|
G:----------------------------| 
C:--33333-33-3----77777-77-7--|
But I'm Not Sure ^_^

F:--------------------------------------------|
C:--------------------------------------------|
G:--(5h7p5)-3-3-33-3-3-3-33-3-----------------| x2
C:--------------------------------------------|

F:-------------------| 
C:-------------------|
G:--/10-10-1010-10---|
C:-------------------| Second Time Play G:--1010-10\88-8\77-7\55
   ^^^ x3

F:-------------------|
C:-------------------|
G:-------------------|
C:--33333333-----33--|
   ^^^ x4
            

comments powered by Disqus
↑ Back to top | A Day To Remember Bass for All Signs Point To Lauderdale. Lyrics for acoustic guitar and electric guitar. Tablatures and chords are parodies/interpretations of the original songs. You may use it for private study, scholarship, research or language learning purposes only