» » »

All Signs Point To Lauderdale Tabs (ver.1)

Artists:  A B C D E F G H I J K L M N O P Q R S T U V W X Y Z # 

All Signs Point To Lauderdale Tabs (ver.1)

A Day To Remember
Rating:
2/5 (1 vote)

Hard to play? Try these video lessons and learn fast.
                My first tab... awesum song!!!

(h) Hammer On  (/) Slide Up  (\) Slide Down  (.) Palm Mute

Drop C tuning

----------------------------------------------------------

INTRO

E|--------------------------------------------------------------------|
B|--------------------------------------------------------------------|
G|-----------55555555----------------------------55555555-------------|
D|--33333333-55555555-77777777\55555555\33333333-55555555-55-555-55~--|
A|--33333333-33333333-77777777\55555555\33333333-33333333-55-555-55~--|
E|--33333333----------77777777\55555555\33333333----------55-555-55~--|
    ........ ........ ........ ........ ........ ........ .. ... .

CHORUS

E|---------------------------------------------|
B|---------------------------------------------|
G|--7/9\7\55-5-5555-55-7/9\7\55-5-555/12-1212--|
D|--x/x\x\xx-x-xxxx-xx-x/x\x\xx-x-xxx/x--x-x---|
A|--5/7\5\33-3-3333-33-5/7\5\33-3-333/10-1010--|
E|---------------------------------------------|

E|---------------------------------------------------|
B|---------------------------------------------------|
G|--7/9\7\55-5-5555-55-7/9\7\51212-101010-999-77777--|
D|--x/x\x\xx-x-xxxx-xx-x/x\x\xx-x--x-x-x--xxx-xxxxx--|
A|--5/7\5\33-3-3333-33-5/7\5\31010-8-8-8--777-55555--|
E|---------------------------------------------------|

VERSE

E|---------------------3--------------------------3--------|
B|---------------------------------------------------------|
G|---------------5-4-5---5-4-5-22222~-2~-2~-5-4-5---5-4-5--|
D|--33333~-3~-3~---------------22222~-2~-2~----------------|
A|--33333~-3~-3~---------------00000~-0~-0~----------------|
E|--33333~-3~-3~-------------------------------------------|
    ....                       ....

E|---------------------3----------------------------|
B|--------------------------------------------------|
G|---------------5-4-5---5-4-5-44444~-4~-4~----7-7--|
D|--33333~-3~-3~---------------44444~-4~-4~-555x-x--|
A|--33333~-3~-3~---------------22222~-2~-2~-5555-5--|
E|--33333~-3~-3~----------------------------555-----|
    ....                       ....         ...

PRECHORUS

E|---------------------------------------------------|
B|---------------------------------------------------|
G|--6/121212-6/121212-7/9\7\5-6/121212-7777-7/9\7\5--|
D|--x/x-x-x--x/x-x-x--x/x\x\x-x/x-x-x--xxxx-x/x\x\x--|
A|--4/101010-4/101010-5/7\5\3-4/101010-5555-5/7\5\3--|
E|---------------------------------------------------|

E|-------------------------------------------|
B|-------------------------------------------|
G|--6/121212-6/121212-7/9\7\5-6/121212-7~7~--|
D|--x/x-x-x--x/x-x-x--x/x\x\x-x/x-x-x--x-x---|
A|--4/101010-4/101010-5/7\5\3-4/101010-5~5~--|
E|-------------------------------------------|

(Repeat Chorus)

(Repeat Verse)

(Repeat Prechorus)

INTRO VARIATION

E|-------------------------------------------------------------------------------|
B|-------------------------------------------------------------------------------|
G|-----------5-555555----------------------------5-555555------------------------|
D|--3-333333-5-555555-7-777777\5-555555\3-333333-5-555555-1212\101010\999\77777--|
A|--3-333333-3-333333-7-777777\5-555555\3-333333-3-333333-x-x-\x-x-x-\xxx\xxxxx--|
E|--3-333333----------7-777777\5-555555\3-333333----------1010\8-8-8-\777\55555--|

BRIDGE

E|-------------------------------------------------------------------------|
B|-------------------------------------------------------------------------|
G|-------------------------------------------------------------------------|
D|--7~77777777777777\5~55555555~555555\3~333333333333~-33~~33333333333333--|
A|--7~77777777777777\5~55555555~555555\3~333333333333~-33~~33333333333333--|
E|--7~77777777777777\5~55555555~555555\3~333333333333~-33~~33333333333333--|
      ..............   .......  ......   ...........       ..............

E|-----------------------------------------------------------------|
B|-----------------------------------------------------------------|
G|-----------------------------------------------------------------|
D|--77777~7---7-77777\55555~5---5-55555\33333~3---3-333333~~~~~~~~-|
A|--77777~7---7-77777\55555~5---5-55555\33333~3---3-333333~~~~~~~~-|
E|--77777~7---7-77777\55555~5---5-55555\33333~3---3-333333~~~~~~~~-|
    ....  .   . ..... ....  .   . ..... ....  .   . .....

E|--------------------------------------------------|
B|--------------------------------------------------|
G|--------------12-------12----12-------12----9h10--|
D|--10-10-10-10----10-10----10----10-10----10-------| (x4)
A|--------------------------------------------------|
E|--------------------------------------------------|

CHORUS VARIATION

E|------------------------------------------------------|
B|------------------------------------------------------|
G|--7-77-777755-5-5555-55-7/9\7\51212-101010-999-77777--|
D|--x-xx-xxxxxx-x-xxxx-xx-x/x\x\xx-x--x-x-x--xxx-xxxxx--|
A|--5-55-555533-3-3333-33-5/7\5\31010-8-8-8--777-55555--|
E|------------------------------------------------------|

(Repeat Intro Variation)

OUTRO

E|---------------------------------------------------------|
B|---------------------------------------------------------|
G|---------------------------------------------------------|
D|--33333~-3~3~---33333~-3~3~---33333~-3~3~---33333~-3~3~--|
A|--33333~-3~3~---33333~-3~3~---33333~-3~3~---33333~-3~3~--|
E|--33333~-3~3~---33333~-3~3~---33333~-3~3~---33333~-3~3~--|
    ....          ....          ....          ....
            
Hard to play? Try these video lessons and learn fast. | Correct




comments powered by Disqus
↑ Back to top | Tablatures and chords are parodies/interpretations of the original songs. You may use it for private study, scholarship, research or language learning purposes only