» » »

Colder Than My Heart If You Can Imagine Tabs (ver.1)

Artists:  A B C D E F G H I J K L M N O P Q R S T U V W X Y Z # 

Colder Than My Heart If You Can Imagine Tabs (ver.1)

A Day To Remember
Rating:
0/5 (0 votes)

Hard to play? Try these video lessons and learn fast.
                (Intro)
Colder than my Heart, If you can Imagine
A Day to Remember
For those who have heart
CGCFAD tuning

|---------------|
|---------------|
|----2~--5~--2~-|
|-3~-3~--3~--5~-|  (x2)
|-5~----[0]-----|
|---------------|

|---------------------------------------------|
|---------------------------------------------|
|-2-2-2-2-2-2-2-2-2-2-------------------------|
|-3-3-3-3-3-3-3-3-3-3-7-7-7-7-7-7-7-7-7-7-7-7-|
|-0-0-0-0-0-0-0-0-0-0-5-5-5-5-5-5-5-5-5-5-5-5-|
|-0-0-0-0-0-0-0-0-0-0-5-5-5-5-5-5-5-5-5-5-5-5-|


|---------------------|
|---------------------|
|-----555-555---------|
|-000-333-333-777-777-|
|-000-000-000-555-555-|
|-000-----------------|
            
Hard to play? Try these video lessons and learn fast. | Correct




comments powered by Disqus
↑ Back to top | Tablatures and chords are parodies/interpretations of the original songs. You may use it for private study, scholarship, research or language learning purposes only