» » »

A Day To Remember, All I Want Tabs (ver.1)

Artists:  A B C D E F G H I J K L M N O P Q R S T U V W X Y Z # 

All I Want Tabs (ver.1)

A Day To Remember Tabs
 Rating:
3.5/5 (41 vote)
All I Want lessons Tabs too difficult? Try these video lessons and learn fast
1
                
REAL FANS SUPPORT BANDS BY PURCHASING THEIR CDS!!!

. = Palm-Muted
~ = hold note
^ = vibrate
p = pull off
h = hammer on
/ = slide up
\ = slide down
* = harmonic


Tuning: Drop C


So this is the new song, please feel free to correct me and give it a rating.
Only takes a few secs ;D


UPDATE  30/10/2010
Guitar 3 in the Intro has been changed.   thanks to joseluis92 for the help!

UPDATE  13/11/2010
1. Last chord in the prechorus has been changed
2. A 2nd version has been added to the 2nd verse  - thanks to seasnboarder!!



"""Intro"""
Guitar 1       *
E-----------------------------------|
B-----------------------------------|
G--------------5------(7)-----------|
D----2---------5-x8----0------------|
A----2-x16-----3-------0-x8---------|
E----2-----------------0------------|


Guitar 2
E---------------------------------------------------------------------------------|
B---------------------------------------------------------------------------------|
G---12-12-12-12-12-12-12\7--9-9-9-9-9-9-9-9----5-5-5-5-5-5-5-5--7-7-7-7-7-7-7-7---|
D---x--x--x--x--x--x--x-\x--x-x-x-x-x-x-x-x----x-x-x-x-x-x-x-x--x-x-x-x-x-x-x-x---|
A---10-10-10-10-10-10-10\5--7-7-7-7-7-7-7-7----3-3-3-3-3-3-3-3--5-5-5-5-5-5-5-5---|
E---------------------------------------------------------------------------------|


Guitar 3   (starts at the *)
Version 1
E-------------------------------------------------|
B---13p12------------13p12-----------10h12p10-----|
G--------12-14p12---------12-14p12-----------12---|
D----------------14---------------14--------------|
A-------------------------------------------------|
E-------------------------------------------------|

Version 2 (Not so good)
E----8---------5--------8-------5--------5h7p5p3-----------|
B------8p5-------8p5------8p5-----8p5----------------------|
G----------------------------------------------------------|
D----------------------------------------------------------|
A----------------------------------------------------------|
E----------------------------------------------------------|



"""Verse"""       0:12
No Guitar


0:22
Guitar 1
E-----------------------------------------------------------|
B-----------------------------------------------------------|
G----------------9------------------------------------------|
D----------------x---<<--play this note over and over-------|
A----------------7------------------------------------------|
E---PICKSLIDE-----------------------------------------------|



"""Pre-Chorus"""    0:35
Guitar 1
E-----------------------------------------------------------------------|
B-----------------------------------------------------------------------|
G----5---------------7----------------------5---------------7-----------|
D----5-x8----5-------7-x8----2--------------5-x8----3-------7-x8--------|
A----3-------5-x8----5-------2-x8-----------3-------3-x8----5-----------|
E------------5---------------2----------------------3-------------------|


Guitar 2    Theres some "noise" in the background and due to the horrible
            quality on YT I can only guess its something like this:
E---------------------------------------------------------------------|
B---------------------------------------------------------------------|
G----5-5-5-5-5-5-5-5/-12-12-12-12-12-12-12-12\-7-7-7-7-7-7-7-7/-------|
D----x-x-x-x-x-x-x-x/-x--x--x--x--x--x--x--x-\-x-x-x-x-x-x-x-x/-------|
A----3-3-3-3-3-3-3-3/-10-10-10-10-10-10-10-10\-5-5-5-5-5-5-5-5/-------|
E---------------------------------------------------------------------|

E------------------------------------|
B------------------------------------|
G---12-12-12-12--11-11-11-11---------|
D---x--x--x--x---x--x--x--x----------|
A---10-10-10-10--9--9--9--9----------|
E------------------------------------|


E---------------------------------------------------------------------------------|
B---------------------------------------------------------------------------------|
G----5-5-5-5-5-5-5-5/-12-12-12-12-12-12-12-12\-11-11-11-11-11-11-11-11-11-11-11---|
D----x-x-x-x-x-x-x-x/-x--x--x--x--x--x--x--x-\-x--x--x--x--x--x--x--x--x--x--x----|
A----3-3-3-3-3-3-3-3/-10-10-10-10-10-10-10-10\-9--9--9--9--9--9--9--9--9--9--9----|
E---------------------------------------------------------------------------------|



"""Chorus"""    0:48    (I can only indentify 1 guitar...)
E------------------------------------------------------|
B------------------------------------------------------|
G----------------------7--------5---------7\-----------|
D----2--------5--------7-x16----5--x8-----7\-----------|
A----2-x16----5-x16----5--------3---------5\-----------|
E----2--------5----------------------------------------|



"""Interlude/Post-Chorus"""    1:00
It's same as the Intro. Leave a comment if u want me to write it down again :D



"""Verse II"""      1:12
Guitar 1
Version 1    (simple)
E---------------------------------------------------------------------|
B---------------------------------------------------------------------|
G---------------------------------------------------------------------|
D---------------------------------------------------------------------|
A---2-2-2-2-2-2-2-2--2-2-2-2-2-2-2-2---10-10-10-10-10-10-10-10--------|
E---2-2-2-2-2-2-2-2--2-2-2-2-2-2-2-2---10-10-10-10-10-10-10-10--------|
    . . . . . . . .  . . . . . . . .   .  .  .  .  .  .  .  .

E------------------------------------------------------------|
B-----------------------------add-one guitar playing this:---|
G---------------------------------------\V/------------------|
D----------------------------------------V-------------------|
A---12-12-12-12-12-12-12-12-------0-0-0-0-0-0-0-0------------|
E---12-12-12-12-12-12-12-12-------0-0-0-0-0-0-0-0------------|
    .  .  .  .  .  .  .  .        . . . . . . . .


Version 2   (thanks to seanboarder for sending me that heplful mail!)
E------------------------------------------------------------------------|
B------------------------------------------------------------------------|
G------------------------------------------------------------------------|
D------------------------------------------------------------------------|
A---2-2-2-2-2-2-2-2--2-2-2-2-2/14-14-14----10-10-10-10-10-10-10-10-------|
E---2-2-2-2-2-2-2-2--2-2-2-2-2/14-14-14----10-10-10-10-10-10-10-10-------|
    . . . . . . . .  . . . . . .  .  .     .  .  .  .  .  .  .  .

E-----------------------------------------------------------------|
B-----------------------------------------------------------------|
G-----------------------------------------------------------------|
D-----------------------------------------------------------------|
A----5-5-5-5--4-4-4-4-----or----12-12-12-12-12-12-12-12-----------|
E----5-5-5-5--4-4-4-4-----------12-12-12-12-12-12-12-12-----------|
     . . . .  . . . .           .  .  .  .  .  .  .  .


Guitar 2   I think this adds something good...
E--------------------------------------------------------------|
B--------------------------------------------------------------|
G---12-12-12-12-12-12-12-12------------------------------------|
D---x--x--x--x--x--x--x--x-----over-and-over,-maybe------------|
A---10-10-10-10-10-10-10-10----go-down-one-fret-for------------|
E------------------------------8-hits-every-couple-times-------|



"""Pre-Chorus"""      1:24       (Minor variation -> G 1)
Guitar 1                                                   [ Different ]
E---------------------------------------------------------------------------|
B---------------------------------------------------------------------------|
G----5---------------7----------------------5---------------7------7--------|
D----5-x8----5-------7-x8----2--------------5-x8----3-------7-x8---7-x8-----|
A----3-------5-x8----5-------2-x8-----------3-------3-x8----5------5--------|
E------------5---------------2----------------------3-----------------------|
                                                            .
Guitar 2 stays the same!



"""Chorus"""    1:36
E-----------------------------------------------------|
B-----------------------------------------------------|
G----------------------7--------5------/--7-----------|
D----2--------5--------7-x16----5--x8--/--7-x8--------|
A----2-x16----5-x16----5--------3------/--5-----------|
E----2--------5---------------------------------------|

E-----------------------------------------------------|
B-----------------------------------------------------|
G----------------------7--------5---------7\----------|
D----2--------5--------7-x16----5--x8-----7\----------|
A----2-x16----5-x16----5--------3---------5\----------|
E----2--------5---------------------------------------|



"""Bridge"""    2:00
Guitar 1
E--------------------------------------------------|
B--------------------------------------------------|
G----9-9-9---8-8-8-----------5-5-5-5/7--7-7--------|
D----x-x-x---x-x-x---0-0-0---x-x-x-x/x--x-x--------|   x3
A----7-7-7---6-6-6---0-0-0---3-3-3-3/5--5-5--------|
E--------------------0-0-0-------------------------|

E--------------------------------------------------------|
B----------------------------------------e=eleven--------|
G----9-9-9-9-9-9-9-9--e-e-e-e-e-e-e-e--------------------|
D----x-x-x-x-x-x-x-x--x-x-x-x-x-x-x-x--------------------|
A----7-7-7-7-7-7-7-7--9-9-9-9-9-9-9-9--------------------|
E--------------------------------------------------------|


Guitar 2
E-----------------------------------------------|
B-----------------------------------------------|
G---16------16-16-16-16-16b-17-17-17------------|
D---x--x8---x--x--x--x--x-b-x--x--x-------------|
A---14------14-14-14-14-14b-15-15-15------------|
E-----------------------------------------------|



"""Interlude II/Bridge II"""    2:12
Guitar 1
U can strumm the first 3 chords 3 times each if u wanto
E------------------------------------------------------------------------------|
B------------------------------------------------------------------------------|
G---------------------5-5-5-5----------------------------------5-5-5-5--7-7-7--|
D---2~----1~----0~----5-5-5-5-0-0-0----------2~----1~----0~----5-5-5-5--7-7-7--|
A---2~----1~----0~----3-3-3-3-0-0-0----------2~----1~----0~----3-3-3-3--5-5-5--|
E---2~----1~----0~------------0-0-0----------2~----1~----0~--------------------|


E------------------------------------------------------------------------------|
B--------t=10------------------------------------------------------------------|
G----------------------5-5-5-5-------------------------------------------------|
D----2~----1~----0~----5-5-5-5-0-0-0-----7-7-7-7-7-7-7-7/t-t-t-t-t-t-t-t--0~---|
A----2~----1~----0~----3-3-3-3-0-0-0-----7-7-7-7-7-7-7-7/t-t-t-t-t-t-t-t--0~---|
E----2~----1~----0~------------0-0-0-----7-7-7-7-7-7-7-7/t-t-t-t-t-t-t-t--0~---|


Guitar 2
E-----------------------------------------------|
B-----------------------------------------------|
G---16------16-16-16-16-16b-17-17-17------------|
D---x--x8---x--x--x--x--x-b-x--x--x-------------|  x2
A---14------14-14-14-14-14b-15-15-15------------|
E-----------------------------------------------|

E-----------------------------------------------------------------------------|
B-----------------------------------------------------------------------------|
G----16------16-16-16-16-16/-12-12-12-------9-------12-12-12-12--e-e-e-e---9~-|
D----x--x8---x--x--x--x--x-/-x--x--x--------x-x8----x--x--x--x---x-x-x-x---x~-|
A----14------14-14-14-14-14/-10-10-10-------7-------10-10-10-10--9-9-9-9---7~-|
E-----------------------------------------------------------------------------|



"""Verse III/Break"""   2:23
NO GUITAR
(Guitars fade out)


"""Chorus"""     2:36
Just repeat the 2nd chorus


"""Outro"""      3:00
Same as the Interlude II/Bridge II



and that's it! I hope this helped, please rate, comment and correct me!

Cheers..
            
Submit corrections

comments powered by Disqus
↑ Back to top | A Day To Remember Tabs for All I Want. Lyrics for acoustic guitar and electric guitar. 1 Tablatures and chords are parodies/interpretations of the original songs. You may use it for private study, scholarship, research or language learning purposes only