» » »

A Day To Remember, Colder Than My Heart If You Can Imagine Bass tabs (ver.1)

Artists:  A B C D E F G H I J K L M N O P Q R S T U V W X Y Z # 

Colder Than My Heart If You Can Imagine Bass tabs (ver.1)

A Day To Remember Tabs
 Rating:
4/5 (4 votes)
Colder Than My Heart If You Can Imagine lessons Tabs too difficult? Try these video lessons and learn fast
                tuning: C G C F (drop C)



bass comes in with drums:
|--------------------------------------------|
|--------------------------------------------|
|--------------------------------------------|
|-7753000000000000-888888888888-555555555555-|

|----------------------------------------|
|----------------------------------------|
|--------------111111111111-333333333333-|
|-000000000000---------------------------|

|----------------------------|
|----------------------------|
|----------------------------|
|-000---000---888---55555555-|

|----------------------------|
|----------------------------|
|-------------11111113333333-|
|-000---000------------------|


"dont point your finger baby"
|----------------------------|
|----------------------------|
|----------------------------| x4
|-0000--000000-8888--5555555-|


"lets live the lie"
|----------------------------|
|----------------------------|
|----------------------------|
|-8~-----------5~------------|



chorus
|-----------------------------------------------------|
|-----------------------------------------------------|
|-----------------------------------------------------| x2
|-000000000000-333333333333-555555555555-888888888888-|


|-------|
|-------|
|-------|
|-0.----|



|--------------------------------------------|
|--------------------------------------------|
|--------------------------------------------|
|-7753000000000000-888888888888-555555555555-|

|----------------------------------------|
|----------------------------------------|
|--------------111111111111-333333333333-|
|-000000000000---------------------------|


"dont be so quick to blame a friend"
|----------------------------|
|----------------------------|
|----------------------------| x4
|-0000--000000-8888--5555555-|


"lets live the lie"
|----------------------------|
|----------------------------|
|----------------------------|
|-8~-----------5~------------|



chorus
|-----------------------------------------------------|
|-----------------------------------------------------|
|-----------------------------------------------------| x2
|-000000000000-333333333333-555555555555-888888888888-|

|-------|
|-------|
|-------|
|-0.----|



bridge
|-----------------------------------------------------------------|
|-----------------------------------------------------------------|
|-----------------------------------------------------------------| x2
|-0-0-0-0-0-----------------------0-0-0-0-0-----------------------|


|-----------------------------------------------------------------|
|-----------------------------------------------------------------|
|-----------------------------------------------------------------| x4
|-0-0-0-0-0-0-0-0-0-0-0-0-0-0-0-0-8-8-8-8-8-8-8-8-5-5-5-5-5-5-5-5-|




chorus         "dont say you wont let it go"
|-----------------------------------------------------|
|--im still-------------------------------------------|
|---singin--------------------------------------------|
|----woa-------333333333333-555555555555-888888888888-|


|-----------------------------------------------------|
|-----------------------------------------------------|
|-----------------------------------------------------|
|-000000000000-333333333333-555555555555-888888888888-|


|-----------------------------------------------------|
|-----------------------------------------------------|
|-----------------------------------------------------|
|-0~~~~~~~~~~~~~~~~~~~~~~~~~~~~~~~~~~~~~~~~~~~~~~~~~~-|
            
Submit corrections

comments powered by Disqus
↑ Back to top | A Day To Remember Bass for Colder Than My Heart If You Can Imagine. Lyrics for acoustic guitar and electric guitar. Tablatures and chords are parodies/interpretations of the original songs. You may use it for private study, scholarship, research or language learning purposes only