>
 >
1958 2

1958 2 Guitar Tabs

A Day To Remember - 1958 2 chords, tabs, tablatures, lyrics

Guitar lessons | Add/correct | Request | Top 50 tabs Artists:  A B C D E F G H I J K L M N O P Q R S T U V W X Y Z 0-9

1958 2 Guitar Tabs – A Day To Remember

CD, Sheet music, Poster

Do you like 1958 2? Share with your friends now
Bass TabsTabsTabs v2Tabs v3
Tuning: Dropped C
CGCFAD

I used the other 1958 tab and added the other guitar and changed one thing 


guitar 1 
Intro.
|-----|	|-------------------------------------------------------|
|-----|	|-------------------------------------------------------|
|-----|	|-------------------------------------------------------|
|0~~~~|	|-------------------------------------------------------| x5
|0~~~~|	|----3-3h5-----3-3h5-----6p5-----3-3h5-----1p0-3p0-1p0--|
|0~~~~|	|0-0-------0-0-------0-0-----0-0-------0-0-------------3|

guitar 2 (come in after guitar 2 plays twice)
|-----|	|-------------------------------------------------------|
|-----|	|-------------------------------------------------------|
|-----|	|-------------------------------------------------------|
|0~~~~|	|-------------------------------------------------------| x3
|0~~~~|	|---13-13h15-13-13h15--16p15--13-13h5--11p0-13p0-11p0--|
|0~~~~|	|00--------00--------00-----00-------00--------------13|

guitar1
|---------------------------------------| 
|---------------------------------------|  
|---------------------------------------|  
|---------------------------------------|  
|----3-3h5-----3-3h5-----6p5-8-7-5-7-5-3|  
|0-0-------0-0-------0-0----------------|  

guitar 2

|------------------------------------------------| 
|------------------------------------------------|  
|------------------------------------------------|  
|------------------------------------------------|  
|----13-13h15-----13-13h15------16p15-8-7-5-7-5-3|  
|0-0----------0-0-----------0-0------------------| 

both guitars (trem each note fast)

|------------------------------------------------| 
|------------------------------------------------|  
|------------------------------------------------|  x4
|------------------------------------------------|  
|0-------8-7--0--------10-7----------------------|  
|0------------0----------------------------------|


guitar 1
|------------------------------------|
|------------------------------------|
|------------------------------------|
|8-------10------7------5------3-----|
|8-(x16)-10-(x8)-7-(x4)-5-(x2)-3-(x2)|
|8-------10------7------5------3-----|

guitar 2
|---------------------------------------|
|---------------------------------------|
|---------------------------------------|
|13-------15------12------10------8-----|
|13-(x16)-15-(x8)-12-(x4)-10-(x2)-8-(x2)|
|13-------15------12------10------8-----|

both guitars							/-Let Ring--\
|-------------------------------------------------------------------|
|---------------------------------------------------------14----14--|
|-------------------------------------------------------17--1717--17|
|-------------------------------------------------------------------|
|000000000~~~~000000000~~~~~000000000~~~~~000000000~~~~~------------|
|000000000~~~~000000000~~~~~000000000~~~~~000000000~~~~~------------|

both guitars				       /-Let Ring--\
|--------------------------------------------------|
|----------------------------------------14----14--|
|--------------------------------------17--1717--17|
|--------------------------------------------------|
|000000000~~~~0~0~0~0~0~0~000000000~~~~------------|
|000000000~~~~0~0~0~0~0~0~000000000~~~~------------|

both guitars
|-------------------------------------------------|
|-------------------------------------------------|
|-------------------------------------------------|
|-------------------------------------------------|
|000000000~~~~0~0~0~0~0~0~000000000~~~~8-7-5-7-5-3|
|000000000~~~~0~0~0~0~0~0~000000000~~~~-----------|


guitar 1
|-------------------------------------------------|
|-------------------------------------------------|
|-------------------------------------------------|
|8------10------7---------------------------------| x3
|8-(x8)-10-(x4)-7-(x4)-000000000~~~~~0-8-7-5-7-5-3|
|8------10------7------000000000~~~~~0------------|

guitar 2
|---------------------------------------------------|
|---------------------------------------------------|
|---------------------------------------------------|
|13------15------12---------------------------------| x3
|13-(x8)-15-(x4)-12-(x4)-000000000~~~~0~0~0~0~0~0---|
|13------15------12------000000000~~~~0~0~0~0~0~0---|

guitar 1
|------------------------------------------------------------------------|
|------------------------------------------------------------------------|
|------------------------------------------------------------------------|
|8------10------7--------------------------------------------------------|
|8-(x8)-10-(x4)-7-(x4)-000000000~~~~0~0~0~0~0~0~000000000~~~~0~0~0~0~0~0~|
|8------10------7------000000000~~~~0~0~0~0~0~0~000000000~~~~0~0~0~0~0~0~|


guitar 2
|--------------------------------------------------------------------------|
|--------------------------------------------------------------------------|
|--------------------------------------------------------------------------|
|13------15------12--------------------------------------------------------|
|13-(x8)-15-(x4)-12-(x4)-000000000~~~~0~0~0~0~0~0~000000000~~~~0~0~0~0~0~0~|
|13------15------12------000000000~~~~0~0~0~0~0~0~000000000~~~~0~0~0~0~0~0~|

both
|-----|
|-----|
|-----|
|0~~~~|
|0~~~~|
|0~~~~|

both guitars (trem each note fast)

|------------------------------------------------| 
|------------------------------------------------|  
|------------------------------------------------|  x4
|------------------------------------------------|  
|0-------8-7--0--------10-7----------------------|  
|0------------0----------------------------------|

guitar 1
|------------------------------------|
|------------------------------------|
|------------------------------------|
|8-------10------7------5------3-----|
|8-(x16)-10-(x8)-7-(x4)-5-(x2)-3-(x2)|
|8-------10------7------5------3-----|

guitar 2
|---------------------------------------|
|---------------------------------------|
|---------------------------------------|
|13-------15------12------10------8-----|
|13-(x16)-15-(x8)-12-(x4)-10-(x2)-8-(x2)|
|13-------15------12------10------8-----|

both guitars							/-Let Ring--\
|-------------------------------------------------------------------|
|---------------------------------------------------------14----14--|
|-------------------------------------------------------17--1717--17|
|-------------------------------------------------------------------|
|000000000~~~~000000000~~~~~000000000~~~~~000000000~~~~~------------|
|000000000~~~~000000000~~~~~000000000~~~~~000000000~~~~~------------|

both guitars				       /-Let Ring--\
|--------------------------------------------------|
|----------------------------------------14----14--|
|--------------------------------------17--1717--17|
|--------------------------------------------------|
|000000000~~~~0~0~0~0~0~0~000000000~~~~------------|
|000000000~~~~0~0~0~0~0~0~000000000~~~~------------|

both guitars
|-------------------------------------------------|
|-------------------------------------------------|
|-------------------------------------------------|
|-------------------------------------------------|
|000000000~~~~0~0~0~0~0~0~000000000~~~~8-7-5-7-5-3|
|000000000~~~~0~0~0~0~0~0~000000000~~~~-----------|


guitar 1
|-------------------------------------------------|
|-------------------------------------------------|
|-------------------------------------------------|
|8------10------7---------------------------------| x3
|8-(x8)-10-(x4)-7-(x4)-000000000~~~~~0-8-7-5-7-5-3|
|8------10------7------000000000~~~~~0------------|

guitar 2
|---------------------------------------------------|
|---------------------------------------------------|
|---------------------------------------------------|
|13------15------12---------------------------------| x3
|13-(x8)-15-(x4)-12-(x4)-000000000~~~~0~0~0~0~0~0---|
|13------15------12------000000000~~~~0~0~0~0~0~0---|

guitar 1
|------------------------------------------------------------------------|
|------------------------------------------------------------------------|
|------------------------------------------------------------------------|
|8------10------7--------------------------------------------------------|
|8-(x8)-10-(x4)-7-(x4)-000000000~~~~0~0~0~0~0~0~000000000~~~~0~0~0~0~0~0~|
|8------10------7------000000000~~~~0~0~0~0~0~0~000000000~~~~0~0~0~0~0~0~|


guitar 2
|--------------------------------------------------------------------------|
|--------------------------------------------------------------------------|
|--------------------------------------------------------------------------|
|13------15------12--------------------------------------------------------|
|13-(x8)-15-(x4)-12-(x4)-000000000~~~~0~0~0~0~0~0~000000000~~~~0~0~0~0~0~0~|
|13------15------12------000000000~~~~0~0~0~0~0~0~000000000~~~~0~0~0~0~0~0~|

both
|-----|
|-----|
|-----|
|0~~~~|
|0~~~~|
|0~~~~|

guitar 1					 
|-----------------------------------|    
|-----------------------------------|    
|-----------------------------------|    
|7------10------3------5------6-----| x8 
|5-(x8)-8--(x8)-1-(x8)-3-(x4)-4-(x4)|    
|-----------------------------------|    

guitar 2 (start after guitar 1 plays through 4 times)
|-------------------------------------------------------------------------------------|
|-------------------------------------------------------------------------------------|
|15-14-14-15-14-14-15-14-15/17-14-14-17-14-14-17-14-15-14-14-15-14-14-15-14-----------|
|--------------------------------------------------------------------------17----18---|x4
|--------------------------------------------------------------------------15-x4-16-x4|
|-------------------------------------------------------------------------------------|

guitar 1
|------------|
|------------|
|------------|
|------------|
|0~~~0~~~~~~~|
|0~~~0~~~~~~~|

guitar 2
|11h13-11----|
|--------h14-|
|------------|
|------------|
|------------|
|------------|
END.





Comments


Popular A Day To Remember tabs & chords
1958 Bass Tabs
All Signs Point To Lauderdale Bass Tabs
Nj Legion Iced Tea Bass Tabs
Colder Than My Heart If You Can Imagine 2 Chords
1958 Tabs
A Second Glance Tabs
City Of Ocala 1 Tabs
My Life For Hire 2 Tabs
Right Back At It Again Tabs
The Downfall Of Us All Ukulele


Song lyrics



↑ Back to top | Tablatures and chords are parodies/interpretations of the original songs. You may use it for private study, scholarship, research or language learning purposes only
© 2014 AZChords.com Contact us | Privacy policy | DMCA | Add/correct tabs | Request tabs | Top 50 tabs