>
 >
1958 1

1958 1 Guitar Tabs

A Day To Remember - 1958 1 chords, tabs, tablatures, lyrics

Guitar lessons | Add/correct | Request | Top 50 tabs Artists:  A B C D E F G H I J K L M N O P Q R S T U V W X Y Z 0-9

1958 1 Guitar Tabs – A Day To Remember

CD, Sheet music, Poster

Do you like 1958 1? Share with your friends now
Bass TabsTabsTabs v2Tabs v3
Im just tabbing the lead guitar... i hope u like it ^^... im to lazy to do rythm! xD 
enjoy it! =] A day to remember!! an amazing band!!
Tuning: Drop C!

Intro
|--------------------------------------------------------------|
|--------------------------------------------------------------|
|--------------------------------------------------------------|
|0~------------------------------------------------------------|
|0~----3-3h5----3-3h5---6p5---3-3h5-1p0-3p0-1p0----------------|
|0~-0-0------0-0-----0-0---0-0-----------------3--(x2!)--------|
    . .      . .     . .   . .
|--------------------------------------------------------------|
|--------------------------------------------------------------|
|--------------------------------------------------------------|
|----10-10h12---10-10h12---13p12---10-10h2-8p0-10p0-8p0--------|
|------------------------------------------------------10*-----|
|-0-0--------0-0--------0-0-----0-0-----------------------(x3!)|
  . .        . .        . .     . .

|-----------------|
|-----------------|
|-12-10-9-10-9----|
|--------------12-|
|-----------------|
|-----------------|
Riff! 1.
|---------------------------------------------------------------------|
|---------------------------------------------------------------------|
|---------------------------------------------------------------------|
|---------------------------------------------------------------------|
|3tp-5tp-8tp-7tp-3tp-5tp-13tp-12tp-3tp-5tp-8tp-7tp-3tp-5tp-10-8-7h8p7-|
|---------------------------------------------------------------------|

|---------------------------------------------------------------------|
|---------------------------------------------------------------------|
|---------------------------------------------------------------------|
|---------------------------------------------------------------------|
|3tp-5tp-8tp-7tp-13tp-12tp-3tp-5tp-10tp-8tp-7h8p7-3tp-5tp-13tp-12tp---|
|---------------------------------------------------------------------|

|--------------------------------------------------------------|
|--------------------------------------------------------------|
|-10-------12-------9------7------5----------------------------|
|-8--------10-------7------5------3----------------------------|
|-8--(xlot)10-(xlot)7-(x2)-5-(x2)-3-(x2)-----------------------|
|-8--------10-------7------5------3----------------------------|

|--------------------------------------------------------------|
|--------------------------------------14----14----------------|
|------------------------------------17--1717--17--------------|
|--------------------------------------------------------------|
|-0000000~-000000~-00000000~-0000000~--------------------------|
|-0000000~-000000~-00000000~-0000000~--------------------------|
  .......  ......  ........  .......
|----------------------------------------------------------------------|
|-------------------------------------14----14-------------------------|
|-----------------------------------17--1717--17-----------------------|
|----------------------------------------------------------------------|
|-000000~-0~-0~-0~-0~-0~-0~-0000000~----------(x2)---------------------|
|-000000~-0~-0~-0~-0~-0~-0~-0000000~-----------------------------------|
  ......  .  .  .  .  .  .  .......
|--------------------------------------------------------------|
|--------------------------------------------------------------|
|---------------------------12-10-9-10-9-----------------------|
|----------------------------------------12--------------------|
|-0000000-0-0-0-0-0-0-00000------------------------------------|
|-0000000-0-0-0-0-0-0-00000------------------------------------|(end of riff)
  ....... . . . . . . .....
Then u do:
|-----------------------|-------------------------------------------|
|-------(x2)------------|-------(x2)--------------------------------|
|-----------------------|-10------15----14--------------------------|
|8-------10------7------|-x-(xlot)x-(x3)x-(x3)----------------------|
|8-(xlot)10(xlot)7(xlot)|-8-------13----12--------------------------|
|8-------10------7------|-------------------------------------------|
Every time u do one of these ^ u do:(but the last one)
|-------------(x3)------|------------(x1)------------------------|
|-----------------------|----------------------------------------|
|--------12-10-9-10-9---|----------------------------------------|
|--------------------12-|----------------------------0~~---------|
|-0000000---------------|-0000000--0-0-0-0-00000-0-0-0~~---------|
|-0000000---------------|-0000000--0-0-0-0-00000-0-0-0~~---------|
  .......                .......   . . . . ..... . .
Repeat riff 1.!!! then u do!:
|-------|------------|---------------|----------------------------|
|-------|------------|---------------|----(strumming not shown!!  |
|-------|-15-14-12-9-|-5-7-10-9/10/9-|-5----------  sorry!!:3)----|
|8-10-7-|-x--x--x--x-|-x-x-x--x-x--x-|-x--------------------------|
|8-10-7-|-13-12-10-7-|-3-5-8--7/-8/7-|-3--------------------------|
|8-10-7-|------------|---------------|----------------------------|

Every time u do one of these ^ u do:(but the last one)
|-------------(x3)-----|------------(x1)------------------------|
|----------------------|----------------------------------------|
|--------12-10-9-10-9--|----------------------------------------|
|--------------------12|------------------------------0~~-------|
|-0000000--------------|-0000000-0-0-0-0-000000-0-0-0-0~~-------|
|-0000000--------------|-0000000-0-0-0-0-000000-0-0-0-0~~-------|
  .......                ....... . . . . ...... . . .

|---(rythm)--|--------------------------------------------------|
|----(x9)----|--11p10-10-11p10-10-13p10-------------------------|
|------------|------(xlot  -------------------------------------|
|-7-10-3-5-6-|-------    starts when rythm do x4!)--------------|
|-5-8--1-3-4-|--------------------------------------------------|
|------------|--------------------------------------------------|
Repeat this ^ until:
|--------------------------------------------------------------|
|-10~~~-10-13-11-10~~~~~~~-------------------------------------|
|--------------------------------------------------------------|
|--------------------------------------------------------------|
|--------------------------------------------------------------|
|--------------------------------------------------------------|

AND FINALLY THE END!!! :) hope u like it!! well.... this is my first tab!! :) song- 
Special thanks! to my love!! Mirna!! [kesita!] i love u!! so much!!! :D





Comments


Popular A Day To Remember tabs & chords
Speak Of The Devil Bass Tabs
All I Want 4 Chords
End Of Me Chords
Im Already Gone 1 Chords
You Shouldve Killed Me When You Had The Chance Chords
1958 2 Tabs
Danger In Starting A Fire Tabs
Nj Legion Iced Tea Tabs
You Shouldve Killed Me When You Had The Chance 2 Tabs
Your Way With Words Is Through Silence Tabs


Song lyrics



↑ Back to top | Tablatures and chords are parodies/interpretations of the original songs. You may use it for private study, scholarship, research or language learning purposes only
© 2014 AZChords.com Contact us | Privacy policy | DMCA | Add/correct tabs | Request tabs | Top 50 tabs