» » »

A Day To Remember, 1958 Tabs (ver.1)

Artists:  A B C D E F G H I J K L M N O P Q R S T U V W X Y Z # 

1958 Tabs (ver.1)

A Day To Remember Tabs
Rating:
5/5 (9 votes)
1958 lessons Tabs too difficult? Try these video lessons and learn fast
                Tuning: Dropped C

Intro.
|-----|	|-------------------------------------------------------|
|-----|	|-------------------------------------------------------|
|-----|	|-------------------------------------------------------|
|0~~~~|	|-------------------------------------------------------| x5
|0~~~~|	|----3-3h5-----3-3h5-----6p5-----3-3h5-----1p0-3p0-1p0--|
|0~~~~|	|0-0-------0-0-------0-0-----0-0-------0-0-------------3|

|----------------------------------------|  |-----------------------------|
|----------------------------------------|  |-----------------------------|
|----------------------------------------|  |-----------------------------|
|----------------------------------------|  |-----------------------------| x4
|----3-3h5-----3-3h5-----6p5-10-8-7-8-7-3|  |0-------8------10------7-----|
|0-0-------0-0-------0-0-----------------|  |0-(x16)-8-(x8)-10-(x4)-7-(x4)|

|------------------------------------|
|------------------------------------|
|------------------------------------|
|8-------10------7------5------3-----|
|8-(x16)-10-(x8)-7-(x4)-5-(x2)-3-(x2)|
|8-------10------7------5------3-----|
							/-Let Ring--\
|-------------------------------------------------------------------|
|---------------------------------------------------------14----14--|
|-------------------------------------------------------17--1717--17|
|-------------------------------------------------------------------|
|000000000~~~~000000000~~~~~000000000~~~~~000000000~~~~~------------|
|000000000~~~~000000000~~~~~000000000~~~~~000000000~~~~~------------|

				       /-Let Ring--\
|--------------------------------------------------|
|----------------------------------------14----14--|
|--------------------------------------17--1717--17|
|--------------------------------------------------|
|000000000~~~~0~0~0~0~0~0~000000000~~~~------------|
|000000000~~~~0~0~0~0~0~0~000000000~~~~------------|

|--------------------------------------------------|
|--------------------------------------------------|
|--------------------------------------------------|
|--------------------------------------------------|
|000000000~~~~0~0~0~0~0~0~000000000~~~~10-8-7-8-7-3|
|000000000~~~~0~0~0~0~0~0~000000000~~~~------------|

|--------------------------------------------------|
|--------------------------------------------------|
|--------------------------------------------------|
|8------10------7----------------------------------| x3
|8-(x8)-10-(x4)-7-(x4)-000000000~~~~~0-10-8-7-8-7-3|
|8------10------7------000000000~~~~~0-------------|

|------------------------------------------------------------------------|
|------------------------------------------------------------------------|
|------------------------------------------------------------------------|
|8------10------7--------------------------------------------------------|
|8-(x8)-10-(x4)-7-(x4)-000000000~~~~0~0~0~0~0~0~000000000~~~~0~0~0~0~0~0~|
|8------10------7------000000000~~~~0~0~0~0~0~0~000000000~~~~0~0~0~0~0~0~|

|-----|
|-----|
|-----|
|0~~~~|
|0~~~~|
|0~~~~|

|-----------------------------|	   |------------------------------------|
|-----------------------------|    |------------------------------------|
|-----------------------------|    |------------------------------------|
|-----------------------------| x4 |8-------10------7------5------3-----|
|0-------8------10------7-----|    |8-(x16)-10-(x8)-7-(x4)-5-(x2)-3-(x2)|
|0-(x16)-8-(x8)-10-(x4)-7-(x4)|    |8-------10------7------5------3-----|

							/-Let Ring--\
|-------------------------------------------------------------------|
|---------------------------------------------------------14----14--|
|-------------------------------------------------------17--1717--17|
|-------------------------------------------------------------------|
|000000000~~~~000000000~~~~~000000000~~~~~000000000~~~~~------------|
|000000000~~~~000000000~~~~~000000000~~~~~000000000~~~~~------------|

				       /-Let Ring--\
|--------------------------------------------------|
|----------------------------------------14----14--|
|--------------------------------------17--1717--17|
|--------------------------------------------------|
|000000000~~~~0~0~0~0~0~0~000000000~~~~------------|
|000000000~~~~0~0~0~0~0~0~000000000~~~~------------|

|--------------------------------------------------|
|--------------------------------------------------|
|--------------------------------------------------|
|--------------------------------------------------|
|000000000~~~~0~0~0~0~0~0~000000000~~~~10-8-7-8-7-3|
|000000000~~~~0~0~0~0~0~0~000000000~~~~------------|

|--------------------------------------------------|
|--------------------------------------------------|
|--------------------------------------------------|
|8------10------7----------------------------------| x3
|8-(x8)-10-(x4)-7-(x4)-000000000~~~~~0-10-8-7-8-7-3|
|8------10------7------000000000~~~~~0-------------|

|------------------------------------------------------------------------|
|------------------------------------------------------------------------|
|------------------------------------------------------------------------|
|8------10------7--------------------------------------------------------|
|8-(x8)-10-(x4)-7-(x4)-000000000~~~~0~0~0~0~0~0~000000000~~~~0~0~0~0~0~0~|
|8------10------7------000000000~~~~0~0~0~0~0~0~000000000~~~~0~0~0~0~0~0~|

|-----|
|-----|
|-----|
|0~~~~|
|0~~~~|
|0~~~~|
					 End.
|-----------------------------------|    |------------|
|-----------------------------------|    |------------|
|-----------------------------------|    |------------|
|7------10------3------5------6-----| x8 |0~~~0~~~~~~~|
|5-(x8)-8--(x8)-1-(x8)-3-(x4)-4-(x4)|    |0~~~0~~~~~~~|
|-----------------------------------|    |0~~~0~~~~~~~|
            

comments powered by Disqus
↑ Back to top | A Day To Remember Tabs for 1958. Lyrics for acoustic guitar and electric guitar. Tablatures and chords are parodies/interpretations of the original songs. You may use it for private study, scholarship, research or language learning purposes only