» » »

Be Like That Bass tabs (ver.1)

Artists:  A B C D E F G H I J K L M N O P Q R S T U V W X Y Z # 

Be Like That Bass tabs (ver.1)

3 Doors Down
Rating:
5/5 (7 votes)

Hard to play? Try these video lessons and learn fast.
                3 Doors Down



I'm pretty sure this is it.  If you find any huge mistakes, please let me know... thx B

ENJOY!




G|----------------------|-----|-----|-----|-----|-----|-----|-----|-----|
D|-Rest for 16 Measures-|-----|-----|-----|-----|-----|-----|-----|-----|
A|----------------------|-----|-----|-----|--3--|-----|-----|-----|--3--|
D|----------------------|--5--|--4--|--2--|-----|--5--|--0--|--2--|-----|




G|--------------|--------------|--------------|-------|--------------|
D|----0---------|--------------|--------------|-------|----0---------|
A|-------3-2-3--|----0---------|----2--0------|--3--2-|-------3-2-3--|
D|-5------------|-0-----5-4-5--|-2-------5-4--|-------|-5------------|




G|--------------|--------------|-------|-----------0-2-|-------------|
D|--------------|--------------|-------|-------0-2-----|-------5---5-|
A|----0---------|----2--0------|--3--2-|-0--0----------|-3--3----3---|
D|-0-----5-4-5--|-2-------5-4--|-------|---------------|-------------|




G|---------|---------------|-----------0-2-|-------------|-------|-------|
D|---------|-------------0-|-------0-2-----|-------5---5-|-------|-------|
A|---------|---------0-3---|-0--0----------|-3--3----3---|-------|-2--3--|
D|-5--5--2-|-5--5--5-------|---------------|-------------|-5--5--|-------|




G|-----|-----|-----|-------|-----|-----|-----|-------|-----|-----|-----|-----|
D|-----|-----|-----|-------|-----|--0--|-----|-------|-----|-----|-----|-----|
A|-----|-----|-----|--3--2-|-----|-----|-----|--3--2-|-----|-----|-----|--3--|
D|--5--|--4--|--2--|-------|--5--|-----|--2--|-------|--5--|--4--|--2--|-----|




G|-----|-----|-----|-----|-------------|-------------|-------------|
D|-----|--0--|-----|-----|----0--------|-------------|-------------|
A|-----|-----|-----|--3--|-------3-2-3-|----0--------|----2--0-----|
D|--5--|-----|--2--|-----|-5-----------|-0-----5-4-5-|-2-------5-4-|




G|-------|-------------|-------------|-------------|-------|-----------0-2-|
D|-------|----0--------|-------------|-------------|-------|-------0-2-----|
A|--3--2-|-------3-2-3-|----0--------|----2--0-----|--3--2-|-0--0----------|
D|-------|-5-----------|-0-----5-4-5-|-2-------5-4-|-------|---------------|




G|-------------|---------|---------------|-----------0-2-|-------------|
D|-------5---5-|---------|-------------0-|-------0-2-----|-------5---5-|
A|-3--3----3---|---------|---------0-3---|-0--0----------|-3--3----3---|
D|-------------|-5--5--2-|-5--5--5-------|---------------|-------------|




G|-------|-------|-----|-----|-----|-----|-----|-----|-----|-----------------|
D|-------|-------|-----|--0--|-----|-----|-----|-----|-----|-----------------|
A|-------|-2--3--|-----|-----|-----|--3--|-----|-----|-----|-3-3-3-3-3-3-3-3-|
D|-5--5--|-------|--5--|-----|--2--|-----|--5--|--4--|--2--|-----------------|




G|-----------------|-----------------|-----------------|-----------------|
D|-----------------|-0-0-0-0-0-0-0-0-|-2-2-2-2-2-2-2-2-|-----------------|
A|-----------------|-----------------|-----------------|-3-3-3-3-3-3-3-3-|
D|-5-5-5-5-5-5-5-5-|-----------------|-----------------|-----------------|




G|-----------------|-----------------|-----------------|-----------------|
D|-----------------|-0-0-0-0-0-0-0-0-|-2-2-2-2-2-2-2-2-|-----------------|
A|-----------------|-----------------|-----------------|-3-3-3-3-3-3-3-3-|
D|-5-5-5-5-5-5-5-5-|-----------------|-----------------|-----------------|




G|-----------------|-----------------|-----------------|-----------------|
D|-----------------|-0-0-0-0-0-0-0-0-|-2-2-2-2-2-2-2-2-|-----------------|
A|-----------------|-----------------|-----------------|-3-3-3-3-3-3-3-3-|
D|-5-5-5-5-5-5-5-5-|-----------------|-----------------|-----------------|




G|-----------------|-----------------|-----------------|-----------------|
D|-----------------|-0-0-0-0-0-0-0-0-|-2-2-2-2-2-2-2-2-|-----------------|
A|-----------------|-----------------|-----------------|-3-3-3-3-3-3-3-3-|
D|-5-5-5-5-5-5-5-5-|-----------------|-----------------|-----------------|




G|---------------|----------|---------------|-----------|---------------|
D|-----------0-2-|----------|-----------0-2-|-----------|-----------0-2-|
A|-------0-2-----|-3--3--3--|-------0-2-----|-3--3--3-2-|-------0-2-----|
D|-2--2----------|----------|-2--2----------|-----------|-2--2----------|




G|---------------|----------|-----||
D|-----------0-2-|----------|-----||
A|-------0-2-----|-3--3--3--|-----||
D|-2--2----------|----------|--5--||
            
Hard to play? Try these video lessons and learn fast. | Correct




comments powered by Disqus
↑ Back to top | Tablatures and chords are parodies/interpretations of the original songs. You may use it for private study, scholarship, research or language learning purposes only