» » »

Away From The Sun Chords (ver.1)

Artists:  A B C D E F G H I J K L M N O P Q R S T U V W X Y Z # 

Away From The Sun Chords (ver.1)

3 Doors Down
Rating:
4/5 (29 votes)

Hard to play? Try these video lessons and learn fast.
                Away from the Sun

Intro:

E ---------------------------------------------------------------------0-|
B ----1-----1-----1----1-----0h1---1-----1-----1-----1----1-----0h1--3---|
G ------2-----2----------0-------0---------0-----0----------0------------|
D --3-----3-----3----2-----2-----------------2-----2----------2----------|
A -------------------------------------3----------------2----------------|
E -----------------------------------------------------------------------|

E -----------------------------------------------------------------------|
B ----1-----1-----1----1-----0h1---1----3---1---0--------3---1---0-------|
G ------2-----2----------0-------0--------0---0---0--------0---0---0-----|
D --3-----3-----3----2-----2------------------------0----------------0---|
A -----------------------------------------------------------------------|
E ------------------------------------3------------------3---------------|


F             C
It's down to this
C           Em7                  F
I've got to make this life make sense
       C                  G
Can anyone tell what I've done
F          C
I miss the life
C           Em7          F
I miss the colors of the world
       C                G
Can anyone tell where I am

      F              C     Em7    F
Cause now again I've found myself so far down
 Em7           G       F                C       Em7
Away from the sun that shines into the darkest place
    F           Em7           G   F        C   C
I'm so far down away from the sun again
Em7               F        C G
Away from the sun again

F           C
  I'm over this
C            Em7           F
I'm tired of livin' in the dark
           C            G
Can anyone see me down here
F              C
 The feeling's gone
C               Em7              F
There's nothing left to lift me up
       C             G
Back into the world I know

      F              C     Em7    F
Cause now again I've found myself so far down
 Em7           G       F                C       Em7
Away from the sun that shines into the darkest place
    F           Em7           G
I'm so far down away from the sun
F                        C       Em7   F           Em7           G
That shines to light the way for me to find my way back into the arms
     F              C        Em7
That care about the ones like me
   F            Em7           G       Am  G  F G
I'm so far down away from the sun again

F             C
It's down to this
C           Em7                  F
I've got to make this life make sense
              C                 G
And now I can't tell what I've done

F                  C            C
And now again I've found myself so far down
Em7                    F                   C       G
Away from the sun that shines to light the way for me

F                   C     Em7    F
And now again I've found myself so far down
 Em7           G        F              C      Em7
Away from the sun that shines into the darkest place
     F           Em7          G
I'm so far down away from the sun
F                         C       Em7    F          Em7           G
That shines to light the way for me to find my way back into the arms
F                    C       Em7
That care about the ones like me
    F           Em7           G        Am  G  F G
I'm so far down away from the sun again
            
Hard to play? Try these video lessons and learn fast. | Correct




comments powered by Disqus
↑ Back to top | Tablatures and chords are parodies/interpretations of the original songs. You may use it for private study, scholarship, research or language learning purposes only