» » »

3 Doors Down, Duck And Run Tabs (ver.1)

Artists:  A B C D E F G H I J K L M N O P Q R S T U V W X Y Z # 

Duck And Run Tabs (ver.1)

3 Doors Down Tabs
 Rating:
4/5 (4 votes)
Duck And Run lessons Tabs too difficult? Try these video lessons and learn fast
1
                Intro 
e-----------------------------------------------------
b-5--5-5-5-5--8--8--7-7-5--1--1-1-1-1--0--0--1-1--3---
g-----------------------------------------------------
d-----------------------------------------------------
a-----------------------------------------------------
e-----------------------------------------------------

e-----------------------5-----------------------------
b-5--5-5-5-5--8--8--7-7---1--1-1-1-1--0--0--1-1--3----
g-----------------------------------------------------
d-----------------------------------------------------
a-----------------------------------------------------
e-----------------------------------------------------

Verse
e ------------------------------------------------
b ------------------------------------------------
g ------------------------------------------------
d -0h2-2-2-2-2------------------------------------
a --------------3-2--0-2-3------------------------
e ------------------------------------------------

e ------------------------------------------------
b ------------------------------------------------
g ------------------------------------------------
d -0h2-2-2-2-2------------------------------------
a --------------3-2-0-2h3p2p0---------------------
e ------------------------------------------------

Chorus
e ------------------------------------------------
b ------------------------------------------------
g -9-999--12-12-x-11-9--5-555--4-4-x-5-7----------
d -9-999--12-12-x-11-9--5-555--4-4-x-5-7----------
a -7-777--10-10-x--9-7--3-333--2-2-x-3-5----------
e ------------------------------------------------
   
e ------------------------------------------------
b ------------------------------------------------
g -9-999--12-12-x-11-14--5-555--4-4-x-5-7---------
d -9-999--12-12-x-11-14--5-555--4-4-x-5-7---------
a -7-777--10-10-x--9-12--3-333--2-2-x-3-5---------
e ------------------------------------------------

Bridge 1
e-----------------------------------------------------------
B-----------------------------------------------------------
G--9-----------------------9--------------------------------
D--9---9---10---7---9-10---9---9---10--7---9-10-9-----------
A--7---9---10---7---9-10---7---9---10--7---9-10-9-----------
E------7---8----5---7-8--------7---8---5---9-8--9-----------

e---------------------------------------------------------
B---------------------------------------------------------
G--9-----------------------9------------------------------
D--9---9---10---7---9-10---9---9---10--10-10-10-----------
A--7---9---10---7---9-10---7---9---10--10-10-10-----------
E------7---8----5---7-8--------7---8---8--8--8------------

Bridge 2
e-----------------------------------------------------------
B-----------------------------------------------------------
G--9-----------------------9--------------------------------
D--9---9---10---7---9-10---9---9---10--7---9-10-9-----------
A--7---9---10---7---9-10---7---9---10--7---9-10-9-----------
E------7---8----5---7-8--------7---8---5---9-8--9-----------

e---------------------------------------------------
B---------------------------------------------------
G--9-----------------------9------------------------
D--9---9---10---7---9-10---9---9---10-10------------
A--7---9---10---7---9-10---7---9---10-10------------
E------7---8----5---7-8--------7---8--8-------------

Pre-Solo
e-----------------------------------------------------------
B-----------------------------------------------------------
G-9------9------9--12--11--14---14-14-----------------------
D-9---9--9---9--9--12--11--14---14-14-----------------------
A-7---9--7---9--7--10--9---12---12-12-----------------------
E-----7------7----------------------------------------------

e-----------------------------------------------------------
B-----------------------------------------------------------
G-9------9------9------------------7------------------------
D-9---9--9---9--9--10--9---7--9-10-7------------------------
A-7---9--7---9--7--10--9---7--9-10-5------------------------
E-----7------7-----8---7---5--7-8---------------------------

Solo
e-----------------------------------------------------------
B-----------------------------------------------------------
G-----------------------------------------------------------
D-----5--4-5-4--------5--4-5-4--7-5----5--4-5-4-------------
A-7------------5--7------------------------------5-7--------
E-----------------------------------------------------------

e-----------------------------------------------------------
B-----10-9-10-9-------10-9-10-9--12-10----10--9-10-9--------
G-9-------------7-9----------------------------------7-9----
D-----------------------------------------------------------
A-----------------------------------------------------------
E-----------------------------------------------------------

End
e-----------------------------------------------------------
B-----------------------------------------------------------
G--9-----------------------9--------------------------------
D--9---9---10---7---9-10---9---9---10--7---9-10-9-----------
A--7---9---10---7---9-10---7---9---10--7---9-10-9-----------
E------7---8----5---7-8--------7---8---5---9-8--9-----------

e---------------------------------------------------
B---------------------------------------------------
G--9-----------------------9------------------------
D--9---9---10---7---9-10---9------------------------
A--7---9---10---7---9-10---7------------------------
E------7---8----5---7-8-----------------------------


Order
Intro     x2
Verse     x3
Chorus    x1
Bridge 1  x1
Bridge 2  x4
Chorus    x2
Pre-solo  x2
Solo      x1
Verse     x1
Chorus    x8
Bridge    x1
End       x1
            
Submit corrections

comments powered by Disqus
↑ Back to top | 3 Doors Down Tabs for Duck And Run. Lyrics for acoustic guitar and electric guitar. 1 Tablatures and chords are parodies/interpretations of the original songs. You may use it for private study, scholarship, research or language learning purposes only