» » »

Be Like That Tabs (ver.3)

Artists:  A B C D E F G H I J K L M N O P Q R S T U V W X Y Z # 

Be Like That Tabs (ver.3)

3 Doors Down
Rating:
3/5 (11 votes)

Hard to play? Try these video lessons and learn fast.
                3 Doors Down 
Be Like That

fig#1
Play this 6 times
e|--------3-------------------------------0--------------------|
b|----------3---3--------5--------------3---3------------3-----|
g|-------------------------7---7----0---------0--------5---5---|
d|----5-------5------7-------7----2---2------------5---------5-|
a|------5----------5---5-------------------------3---3---------|
E|--3----------------------------------------------------------|

After the 6th time while he's singing "if i could be like that"
play this. I can't tell you how many times each chord is played so 
you'll have to play with the song.
fig#2
e|----------------------------|
b|-------5----7----3----------|
g|--4----7----9----5----------|
d|--5----7----9----5----------|
a|--5----5----7----3----------|
E|--3-------------------------|

After the part above when no one is singing play this.
fig#3
e|---0-----------------|-----|
b|---3----3------------|--5--|
g|---0----5----4----4--|--7--|
d|---2----5----5----5--|--7--|
a|--------3----5----5--|--5--|                   4
E|-------------3----3--|-----|                   5 
                          ^                      5
      the 2nd time play this instead of the last 3. 

so the whole song goes in this order-

fig#1
fig#2
fig#3
fig#1
fig#2
fig#3
fig#1
fig#2
fig#3

21308
            
Hard to play? Try these video lessons and learn fast. | Correct




comments powered by Disqus
↑ Back to top | Tablatures and chords are parodies/interpretations of the original songs. You may use it for private study, scholarship, research or language learning purposes only