>
 >
When I´M Gone

When I´M Gone Bass Tabs

3 Doors Down - When I´M Gone chords, tabs, tablatures, lyrics

Guitar lessons | Add/correct | Request | Top 50 tabs Artists:  A B C D E F G H I J K L M N O P Q R S T U V W X Y Z 0-9

When I´M Gone Bass Tabs – 3 Doors Down

CD, Sheet music, Poster

Do you like When I´M Gone? Share with your friends now
Bass TabsChords
Title        :WHEN I'M GONE
Artist/Group : 3 Doors Down
Info         : 4 Strings Standard Bass (Meter=4/4, Key=G)
Intro
                    
G---------------|-|-
D---------------|-|-
A-------3-5-3-0-|-|-
E---3-5---------|-|-
                    
 
Part 1- x3
                                          
G-----|---|-----|-------|---|-------||-||-
D-----|---|-----|-------|---|-------||-||-
A---0-|-0-|-0-0-|-0-2-3-|---|-3-5-3-||-||-
E-----|---|-----|-------|-3-|-------||-||-
                                          
 
 Part 2
                          
G-----|-----|---|-----|-|-
D-----|-----|---|-----|-|-
A---0-|-3---|-0-|-5-3-|-|-
E-----|---3-|---|-----|-|-
                          
 
 Part 3- Chorus x4
                                            
G-----|---|---------------|-----------||
D-----|---|-----------0---|-----------||
A---0-|-0-|-2h-3p-2-0-----|-----------||
E-----|---|-------------3-|-2h-3p-2-0-||
                                            
 
 Bridge x2
                                   
G-------|-----|-----|---------||
D-------|-----|-----|---------||
A---2-3-|-3-5-|-5-7-|-5-3---0-||
E-------|-----|-----|-----3---||
                                  
Intro
Part 1 x3
Part 2
Part 3 x4
Part 1 x4
Part 3 x4
Bridge x4
Part 3 
Part 1
h=hammer on
p=pull off





Comments


Popular 3 Doors Down tabs & chords
Its Not My Time 2 Bass Tabs
Kryptonite 5 Bass Tabs
The Road Im On Bass Tabs
Be Somebody Tabs
Here Without You 3 Tabs
Later Tabs
Let Me Be Myself 2 Tabs
Loser Tabs
The Champion In Me Beijing Mix Tabs
These Days Tabs


Song lyrics



↑ Back to top | Tablatures and chords are parodies/interpretations of the original songs. You may use it for private study, scholarship, research or language learning purposes only
© 2014 AZChords.com Contact us | Privacy policy | DMCA | Add/correct tabs | Request tabs | Top 50 tabs