» » »

3 Doors Down, Be Like That Bass tabs (ver.2)

Artists:  A B C D E F G H I J K L M N O P Q R S T U V W X Y Z # 

Be Like That Bass tabs (ver.2)

3 Doors Down Tabs
 Rating:
3.7/5 (6 votes)
Be Like That lessons Tabs too difficult? Try these video lessons and learn fast
                
actually there's no bass til the verse part h0wever its better if u will put bass on
it... right? 

intro:

G|----------------------------------|
D|------2---------------------------|
A|--------5----5--7-----------------|
E|--3-2-----3-------8---------------|

verse1:

G|----------------------------------|
D|----------------------------------|
A|-------7--5---5--7----------------|
E|--3--2------3------8--------------|

chorus:

G|-----------------------------------|
D|---0-------------------------------|
A|-----232-5-0----/-7------3333------|
E|-3-----------323---7-323------320--|

G|-----------------------------------|
D|---0-------------------------------|
A|-----232-5-0----/-7------3333------|
E|-3-----------323---7-323-----------|

G|-----------------------------------|
D|---0-------------------------------|
A|-----232-5-0----/-7------3333------|
E|-3-----------323---7-323-----------|
            h h                      h  h
G|--------------------------------------------------|
D|-----------5/7-----5-----------------5/7----------|
A|--------5/7----------333-3333-----5/7--------2233-|
E|--5-555-------3333--3--------5-555------3333------|

verse2:

G|----------------------------------|
D|----------------------------------|
A|-------7--5---5--7----------------|
E|--3--2------3------88\------------|

*chorus*

G|------------------------------------|
D|------------------------------------|
A|-------55-555-7-777-77--------------|
E|-3-3333---------------8-8888-88-\---|

G|------------------------------------|
D|------------------------------------|
A|-------55-555-7-777-77--------------|
E|-3-3333---------------8-8888-88-\---|

          h  h                h  h
G|----------0/2-----------------0/2---------|
D|-------0/2-----------------0/2------------|
A|-2-222-------3-333-33-2-222------3-333-33-|
E|------------------------------------------|

         h  h     r~~~~
G|---------0/2------------------------|
D|------0/2---------------------------|
A|-2-222------3333--------------------|
E|----------------3-------------------|

please rate it. thanx.

*please dont copy and post this tab as yours. have some respect*
kopyahin tpos i-post it0ng tab n i2 n kunwari kyo ang gumawa*
            
Submit corrections

comments powered by Disqus
↑ Back to top | 3 Doors Down Bass for Be Like That. Lyrics for acoustic guitar and electric guitar. Tablatures and chords are parodies/interpretations of the original songs. You may use it for private study, scholarship, research or language learning purposes only