» »

/0-9/311-tabs-28.html

»

311, You Wouldn't Believe Tabs (ver.3)

Artists:  A B C D E F G H I J K L M N O P Q R S T U V W X Y Z # 

You Wouldn't Believe Tabs (ver.3)

311 Tabs
Rating:
0/5 (0 votes)
You Wouldn't Believe lessons Tabs too difficult? Try these video lessons and learn fast
                Intro      palm muted
e:-----------------------------------------------------------------
B:-----7-------7-------5-------5-------7-------7-------5----------- 
G:---5---5---5---5----5---5---5---5---5---5---5---5---5---5---5- 
D:-7-------7---------5-----5-------7-------7-------5-------5---5--- 
A:----------------------------------------------------------------- 
E:----------------------------------------------------------------- 
Riff 2 
e:------------------------------------------
B:-------3(3)-5-6-5-3---------------------
G:-2-3/5-----------------------
D:------------------------------------------
A:------------------------------------------
E:------------------------------------------
  chorus
e:---------------------------------- 
b:-7--7-7-7-5--5--7---7--7-7-7-5--5-  
g:-5--5-5-5-3--3--5---5--5-5-5-3--3- 
d:---------------------------------
a:---------------------------------
e:------------------------------------------

e:--------------------------------------------------------
B:--------------------------------------------------------
G:-9--9--9--9--9--9--9--9-------9-9-9-9--9--9--9--9--9--9-
D:--------------------------------------------------------
A:--------------------------------------------------------
E:--------------------------------------------------------Ending
                
B:-------------------------G:-------------------------
D:-5-5--5-5--5-5--5-5--7--3-3--3-3--3-3--3-3--5-
E:-3-3--3-3--3-3--3-3--5
            

comments powered by Disqus
↑ Back to top | 311 Tabs for You Wouldn't Believe. Lyrics for acoustic guitar and electric guitar. Tablatures and chords are parodies/interpretations of the original songs. You may use it for private study, scholarship, research or language learning purposes only