» »

/0-9/311-tabs-28.html

»

311, Rub A Dub Tabs (ver.1)

Artists:  A B C D E F G H I J K L M N O P Q R S T U V W X Y Z # 

Rub A Dub Tabs (ver.1)

311 Tabs
 Rating:
4/5 (4 votes)
Rub A Dub lessons Tabs too difficult? Try these video lessons and learn fast
                'Rub-A-Dub'
Performed by 311
Music by:  N. Hexum
Lyrics by:  N. Hexum 
(c) 1997 Hydroponic Music BMI
---------------

Intro:
[Guitar 1:]
   G  C  F6  C   F6  C   A  N.C.
1:-3//8--10--8---10--8---5--3-
2:-3//8--10--8---10--8---5--0-
3:-4//9--10--9---10--9---6--4-
4:----------------------------
5:----------------------------
6:----------------------------

[Guitar 2:]
   N.C.
1:-----------------
2:-----------------
3:---------------5-
4:-------2-3--5----
5:-3--5------------
6:-----------------

Solo 1:
   N.C.
1:-----------------------------
2:-13-10-12--------------------
3:----------12-12//14-10----12-
4:-----------------------14----
5:-----------------------------
6:-----------------------------

   N.C.
1:--------------------------------------------------
2:-13-10-12-----------------------------------------
3:----------12-12//14-10----------------------------
4:-----------------------14-12h14p12-10-12-10-------
5:--------------------------------------------14-12-
6:--------------------------------------------------

   N.C.
1:---------------------------------------------------
2:---------------------------------------------------
3:---------------------------------------------------
4:-14-17-17-14-14-15-15-17---14-17-17-14-14-15-15-17-
5:---------------------------------------------------
6:---------------------------------------------------

   N.C.
1:---------------------------------------------------
2:---------------------------------------------------
3:----17-17---------------------17-17----------------
4:-17-------17-17-19-19-17---17-------17-17-19-19-17-
5:---------------------------------------------------
6:---------------------------------------------------

Riff 1 (w/Flanger):
   C      F6
1:-8--8---10--10-
2:-8--8---10--10-
3:-9--9---10--10-
4:---------------
5:---------------
6:---------------

Riff 2:
   N.C.
1:--------------------------
2:--------------------------
3:----12-12-12-9--9-10-9----
4:-10--------------------12-
5:--------------------------
6:--------------------------

Riff 3 (w/Flanger):
   C    F6
1:-8-8--10-10-10-
2:-8-8--10-10-10-
3:-9-9--10-10-10-
4:---------------
5:---------------
6:---------------


Lyric/Song Structure:
---> Play Intro (x1)
---> Play Solo + Riff 1
---> Play Solo + Riff 2
---> No Guitar Over:
   Ooh, what else can I do
   Ooh, what else can I do
   Ooh, face in a screw
   Ooh, racing to prove
   You never remember, the blossom sender
   Still in a Rub a Dub style
---> Play Riff 1 over:
   Long time you don't know what I'm doing whoa
   Long time see troubles are brewing yeah
   Stick to the way you rock it and know that you'll cope with that
   Not gonna let it sit till I say, "How dope was that"
   Keep your head pumping til you get in the zone zone
   Not giving up not going home
---> Play Intro (x1)
---> Play Riff 3 over:
   Stick to the way you rock it just do it real slow
   Nobody can really say cuz nobody really know
   Only thing that matters if it's funky to you
   You got a choice of what you can do
---> Play Riff 1 over: 
   Ooh, what else can I do
   Ooh, what else can I do
   Ooh, face in a screw
   Ooh, racing to prove
   You never remember, the blossom sender
   Still in a Rub a Dub style
---> Play Intro Guitar 2 over:
   Stick to the way you rock it just do it real slow
   Nobody can really say cuz nobody really know
   Only thing that matters if it's funky to you
   You got a choice of what you can do
---> No Guitar
            
Submit corrections

comments powered by Disqus
↑ Back to top | 311 Tabs for Rub A Dub. Lyrics for acoustic guitar and electric guitar. Tablatures and chords are parodies/interpretations of the original songs. You may use it for private study, scholarship, research or language learning purposes only