» »

/0-9/311-tabs-28.html

»

311, You Wouldn't Believe Bass tabs (ver.1)

Artists:  A B C D E F G H I J K L M N O P Q R S T U V W X Y Z # 

You Wouldn't Believe Bass tabs (ver.1)

311 Tabs
Rating:
0/5 (0 votes)
You Wouldn't Believe lessons Tabs too difficult? Try these video lessons and learn fast
                (2)
chorus:
g:----------------------------------|
d:----------------------------------|
a:---------------------------0-3-0-3|
e:----------------------------------|
b:33-3-3-3-1-1-111-3-333-1-1--------|

riff2:
g:------------------------------------|
d:------------------------------------|
a:-------------------0-0-0-1-1-1-2-2-2|
e:0-0-0--2-2-2-3-3-3------------------|
b:------------------------------------|

bass solo:
g:------2-4-5-4-22-4-2-520-------2-4-5-4-22-4-2-457-457|
d:0-4-5--------------------0-4-5-----------------------|
a:-----------------------------------------------------|
e:-----------------------------------------------------|
b:-----------------------------------------------------|

end:
g:-------------------------------|
d:-------------------------------|
a:3-03-03-3-03-03-3-3-03-03------|
e:-------------------------------|
b:--------------------------3-3\1|
            
Submit corrections

comments powered by Disqus
↑ Back to top | 311 Bass for You Wouldn't Believe. Lyrics for acoustic guitar and electric guitar. Tablatures and chords are parodies/interpretations of the original songs. You may use it for private study, scholarship, research or language learning purposes only