>
 >
 >
You Wouldn't Believe 1

You Wouldn't Believe 1 Guitar Tabs

311 - You Wouldn't Believe 1 chords, tabs, tablatures, lyrics

Guitar lessons | Add/correct | Request | Top 50 tabs Artists:  A B C D E F G H I J K L M N O P Q R S T U V W X Y Z 0-9

You Wouldn't Believe 1 Guitar Tabs – 311

CD, Sheet music, Poster

Do you like You Wouldn't Believe 1? Share with your friends now
TabsTabs v2Tabs v3
Tuning: Standard [E A D G B E]

Intro/Verses
Clean, No Distortion
"He was a king till she laid waste..."
E|-------------------------------------------------------------------
B|---7---7---5---5---7---7---5---------------------------------------
G|--7-7-7-7-5-5-5-5-7-7-7-7-5-5-5-5----------------------------------
D|-7---7---5---5---7---7---5---5-5-----------------------------------
A|-------------------------------------------------------------------
E|-------------------------------------------------------------------
Repeat twice for intro.
Repeat four times for each verse.

Pre-Chorus
Wah-Wah and/or Phaser/Phalger Effect
E|-------------------------------------------------------------------
B|-------------------------------------------------------------------
G|-2--3-5-7--9--10-9-7---2--3-5-7--9--10-9-7-2-----------------------
D|-------------------------------------------------------------------
A|-------------------------------------------------------------------
E|-------------------------------------------------------------------
Repeat twice.

Chorus
Medium Distortion
"Head full of ideas..."
E|-------------------------------------------------------------------
B|-------------------------------------------------------------------
G|-7-7-xx-5-5-x-5-5-xx--7-7-xx-5-5-2-5-2-5---------------------------
D|-7-7-xx-5-5-x-5-5-xx--7-7-xx-5-5-2-5-2-5---------------------------
A|-5-5-xx-3-3-x-3-3-xx--5-5-xx-3-3-0-3-0-3---------------------------
E|-------------------------------------------------------------------
Repeat four times.

Bridge
Medium Distortion
"Wonder woman got rid of wonder man..."
E|-----------------------
B|-----------------------
G|-----------------------
D|-----------------------
A|-----------------------
E|-000-222-333-555-66-77-
Repeat four times.


Song Setup/Lyrics:
Intro
Verse 1
Pre-Chorus
Chorus
Bridge 1
Chorus
Verse 2
Pre-Chorus
Chorus
Bridge 2
Chorus
End

(Intro/Verse 1)
He was a king till she laid waste
Now he can not fill up the space
And I just see him drifting
While he's drifting
On bourbon alley feelin' low
Just because she let him go
I don't think he even knows
He'll ever be fine
(Pre-Chorus)
(Chorus)
He's got a head full of ideas
Let me tell ya
That you wouldn't believe
And he's got
A heart made of pure gold
And something else
So many tricks up his sleeve
You might think he's a jester because he'll
Make you laugh till you cry
You better come with your best if you test him
Unless you're ready to die
(Bridge 1)
Wonder woman got rid of wonder man
That man's not part of her wonder plan
Letter to the so called better bet on my man
Believe it, you will find out, baby
Damn!
(Chorus)
(Verse 2)
A million people come and go
To this person's ebb and flow
And faces keep on changin'
While they're changin'
A certain few will stay intact
When they're not they're doin an act
I know this important fact
Don't get confused like
(Pre-Chorus)
(Chorus)
(Bridge 2)
First you love him then you're loving him not
All the while he just smiles, giving all that he's got
Do you find it in your heart to say that he's not what you sought?
Do you want me to continue this, or what?
(Chorus)
Whoa YEAH!
Whoa YE-YEAH!
(End)


This is a nice ska-ish, positive, happy 311 song. It's pretty easy
and repetitive but fun nonetheless. :) If you have any questions,
comments, love letters, death threats or anything of the sort, don't
hesitate to contact me using one of the methods listed above. :P
Thank you, drive through...
Dirk Lithium (:06- 18 -01:)





Comments


Popular 311 tabs & chords
Galaxy 1 Bass Tabs
Juan Bond Bass Tabs
Salsa 1 Bass Tabs
Wake Your Mind Up Bass Tabs
Who's Got The Herb? 1 Bass Tabs
First Straw Intro 1 Tabs
Five Of Everything Tabs
Livin' & Rockin' Tabs
This Too Shall Pass Tabs
The Continuous Life Ukulele


Song lyrics



↑ Back to top | Tablatures and chords are parodies/interpretations of the original songs. You may use it for private study, scholarship, research or language learning purposes only
© 2014 AZChords.com Contact us | Privacy policy | DMCA | Add/correct tabs | Request tabs | Top 50 tabs