» »

/0-9/311-tabs-28.html

»

311, Cali Soca Bass tabs (ver.1)

Artists:  A B C D E F G H I J K L M N O P Q R S T U V W X Y Z # 

Cali Soca Bass tabs (ver.1)

311 Tabs
 Rating:
4/5 (7 votes)
Cali Soca lessons Tabs too difficult? Try these video lessons and learn fast
                this iz everything except the last few parts at the end. i'll throw those in later.

-------------------------------------------------------------------------------
			     Cali Soca- 311
-------------------------------------------------------------------------------


Tuning:standard

(x3)
G|---------------------------------------------------------------------------|
D|----5-4-3---------3---------3-3--------------------------------------------|
A|-----------0h3-3-----------------0h1h3-3-0h3h5-5---------------------------|
E|3-3------------------0-1-1-------------------------------------------------|

G|---------------------------------------------------------------------------|
D|----5-4-3---------3---------3-------3--------3-----------------------------|
A|-----------0h3-3-----------------------------------------------------------|
E|3-3------------------0-1-1----1-1-1---1-1-1-----1--------------------------|
Everything above, times 2 is the slap bass solo(guitar comes back in by the 2nd time)

Everything below is the beginning parts and whatnot
(1)                            (2)
G|------------------------9-9-|----------------------9-9---------------------|
D|--------------10-----10-----|------10----10-----10-------------------------|
A|10-10-10--12-----12---------|10-10----12----12-----------------------------|
E|----------------------------|----------------------------------------------|

(3)                         (4)
G|----------------------9-9|-------------------------------------------------|
D|------------10-----10----|-------------------------------------------------|
A|10-10----12----12--------|10-10-10-----------------------------------------|
E|-------------------------|-------------------------------------------------|



G|-------9------------|------------------------------------------------------|
D|10------------------|-----8-12-10-10---------------------------------------|
A|-------8-8-8--------|8-10------------12-8--8-8-8---------------------------|
E|--------------------|------------------------------------------------------|

G|--------------------------------|------------------------------------------|
D|-----8-12--10-------------------|-----8-12-10-10---------------------------|
A|8-10-----------12-8--8-8-8------|8-10------------12-8--8-8-8---------------|
E|--------------------------------|------------------------------------------|
                (1)                                  (last part)
G|-------------|------------------------------------|------------------------|
D|-----8-12-10-|------------------------------------|------------------------|
A|7-10---------|----1-1---3\5-3-------3-3---3\5-3-5-|------------------------|
E|-------------|3-3-----3-------5-1-1-----1---------|1-1-1-1-1---------------|

  (2)
G|---------------------------------------------------------------------------|
D|---------------------------------------------------------------------------|
A|----1-1---3\5-3-------3-3--------------------------------------------------|
E|3-3-----3-------5-1-1-----1-1-1-0-0-1--------------------------------------|
Do 1 and 2 over and over ‘till It changes back

G|---------------------------------------------------------------------------|
D|---------------------------------------------------------------------------|
A|---------------------------------------------------------------------------|
E|---------------------------------------------------------------------------|

| /  slide up
| \  slide down
| h  hammer-on
| p  pull-off
| ~  vibrato
| +  harmonic
| x  Mute note
            
Submit corrections

comments powered by Disqus
↑ Back to top | 311 Bass for Cali Soca. Lyrics for acoustic guitar and electric guitar. Tablatures and chords are parodies/interpretations of the original songs. You may use it for private study, scholarship, research or language learning purposes only