» »

/0-9/311-tabs-28.html

»

311, You Wouldn't Believe Tabs (ver.1)

Artists:  A B C D E F G H I J K L M N O P Q R S T U V W X Y Z # 

You Wouldn't Believe Tabs (ver.1)

311 Tabs
 Rating:
4/5 (4 votes)
You Wouldn't Believe lessons Tabs too difficult? Try these video lessons and learn fast
                PROPS GO TO: Jonathan Werness

Riff 1 (w/Distortion & Palm Muted):
  (D7)            (C)             (D7)            (C)
e:-----------------------------------------------------------------
B:-----7-------7-------5-------5-------7-------7-------5----------- 
G:---5---5--(5)--5---5---5---5---5---5---5---5---5---5---5---5---5- 
D:-7-------7-------5-------5-------7-------7-------5-------5---5--- 
A:----------------------------------------------------------------- 
E:----------------------------------------------------------------- 

Riff 2:


   N.C.
e:------------------------------------------
B:-------------3-5-6-5-3----------3-5-6-5-3-
G:-2-(2)--3//5------------2--3//5-----------
D:------------------------------------------
A:------------------------------------------
E:------------------------------------------

Play note in () the second time through.

Chorus:
   D/A      C/G->Am7/E D/A         C/G-Am7/E
e:-------------------------------------
B:-------------------------------------
G:-7--7--7--5--5-5-----7--7--7--5--5-5-
D:-7--7--7--5--5-5-----7--7--7--5--5-5-
A:-5--5--5--3--0-3-----5--5--5--3--0-3- 
E:-5--5--5--3--0-3-----5--5--5--3--0-3- 

Riff 3 (w/Distortion & Light Palm Muting):
   E5    F#5   G5    A5    Bb5 B5
e:---------------------------------
B:---------------------------------
G:---------------------------------
D:---------------------------------
A:-2-2-2-4-4-4-5-5-5-7-7-7-8-8-9-9-
E:-0-0-0-2-2-2-3-3-3-5-5-5-6-6-7-7-

Fill 1 (Palm Muted):
   N.C.
e:--------------------------------------------------------
B:--------------------------------------------------------
G:-9--9--9--9--9--9--9--9-------9-9-9-9--9--9--9--9--9--9-
D:--------------------------------------------------------
A:--------------------------------------------------------
E:--------------------------------------------------------

Ending:
   C/G->Am7         D/A
e:------------------------
B:-5--5--5-5--5--5--7-7\\-
G:-5--5--5-5--5--5--7-7\\-
D:-5--5--5-5--5--5--7-7\\-
A:-3--0--3-3--0--3--5-5\\-
E:-3--0--3-3--0--3--5-5\\-


Song Structure/Lyrics:
---> Play Riff 1 (x1)
---> Play Riff 1 over:
Nick:
  He was a king 'til she laid waste
  Now he can not fill up the space
  And I just see him drifting
  While he's drifting
  On bourbon alley feeling low
  Just because she let him go
  I don't think he even knows
  He'll ever be fine
---> Play Riff 2 (x2)
---> Play Chorus over:
Nick & SA:
  He's got a head full of ideas
  Let me tell ya that you wouldn't believe
  And he's got a heart made of pure gold
  And something else many tricks up his sleeve
  You might think he's a jester because he'll
  Make you laugh til' you cry and what else
  You better come with your best if you test him
  Unless you're ready to die
---> Play Riff 3 over:
SA:
  Wonder woman ditched wonder man
  That man's not part of your wonder plan
  Letter to the so called better bet on my man
  Believe it you will find out baby, damn
---> Play Chorus over:
Nick:
  He's got a head full of ideas
  Let me tell ya that you wouldn't believe
  And he's got a heart made of pure gold
  And something else many tricks up his sleeve
  You might think he's a jester because he'll
  Make you laugh til' you cry and what else
  You better come with your best if you test him
  Unless you're ready to die
---> Play Riff 1 (x1)
---> Play Riff 1 (x2) with Fill 1
---> Play Riff 1 over:
  A million people come and go
  Through a persons ebb and flow
  And faces keep on changing
  While they're changing
  Some certain few will stay in tact
  When they're not built on an act
  I know this important fact
  Don't get confused like
---> Play Riff 2 (x2)
---> Play Chorus over:
Nick & SA:
  He's got a head full of ideas
  Let me tell ya that you wouldn't believe
  And he's got a heart made of pure gold
  And something else many tricks up his sleeve
  You might think he's a jester because he'll
  Make you laugh til' you cry and what else
  You better come with your best if you test him
  Unless you're ready to die
---> Play Riff 3 over:
SA:
  First you love him then your loving him not
  All the while he just smiles giving all that he's got
  Do you find it in your heart to say he's not
  What you sought do you want me to continue with this or what
---> Play Chorus over:
Nick:
  Whoa yeah, Whoa yeah
Nick & SA:
  He's got a head full of ideas
  Let me tell ya that you wouldn't believe
  And he's got a heart made of pure gold
  And something else many tricks up his sleeve, sleeve, sleeve
---> Play Ending (x1)
            
Submit corrections

comments powered by Disqus
↑ Back to top | 311 Tabs for You Wouldn't Believe. Lyrics for acoustic guitar and electric guitar. Tablatures and chords are parodies/interpretations of the original songs. You may use it for private study, scholarship, research or language learning purposes only