Home » W » Wiz Khalifa »

Wiz Khalifa - See You Again Tabs

Artists:  A B C D E F G H I J K L M N O P Q R S T U V W X Y Z # 

See You Again Tabs
Version #3
Wiz Khalifa


Copy URL
4:4 time
Tuning: Standard, Capo 1
intro
e|--------0---7---5-----------5---7---9---7---5---7-|-------------|
B|--------------------------------------------------|-------------|
G|--------------------6-----------------------------|-------------|x3
D|--------0-----------------------------------------|-------------|
A|--------------------0-----------------------------|-------------|
E|--------------------------------------------------|-------------|

verse
e|-----0---7---5--------------0-|--2---------------------|-------------------|
B|-------------------------2----|-------2--5-------------|-0--0----0--2------|
G|----------------6-----2-------|----2-------------2---2-|-------2-----------|
D|-----0------------------------|----------------2---2---|-0-----------------|
A|----------------0-------------|----------0-------------|-------------------|
E|-------------------------0----|--2---------------------|-------------------|

e|------------------0-|-2--4--2--0-----------|-----------------------0-|-2---|
B|--------------2-----|------------2--0------|-0--0--------------2-----|-----|
G|----------2---------|------------------2---|-------2--2--------------|-----|
D|------2-------------|-4----------0--------4|-0-----------------------|-----|
A|---0----------------|----------------------|----------0--------------|-----|
E|--------------------|----------------------|----------------0--------|-2---|

e|-----------------------|----------------------------0|----5--7--9--7--5----|
B|------2--5-------------|-0--0-----0--2-----------2---|-7-------------------|
G|---2------------2-----2|-------2--------------2------|---------------------|
D|-------------2-----2---|-0-----------------2---------|-4-------------------|
A|---------0-------------|----------------0------------|-------------0-------|
E|-----------------------|-----------------------------|---------------------|

e|------|-7--7--5--5------------|-7--7---5--5--|-----------------------------|
B|--7--7|------------------5--7-|-7------------|-2--2-----2--2-----2--2------|
G|------|-----------------------|--------------|-2-----4--2-----4--2-----4--2|
D|------|-0---------------------|-0------------|-4--------X-----------------2|
A|------|----------0------------|-----------0--|-------------------0--------X|
E|------|-----------------------|--------------|-----------------------------|

e|-----------------------------|---------------------------------------------|
B|---2--2-----2--2-------------|---2--2-----2--2-----2--2-----2--2-----------|
G|---2-----4--2-----4--2-------|---2-----4--2-----4--2-----4--2-----4--2--2--|
D|---0--------X--------2-------|---4--------X--------------------------2-----|
A|---------------------0---X---|---------------------0--------0--------X-----|
E|-----------------------------|---------------------------------------------|

e|---------------------------|------------------------------------------|
B|--2--2-----2--2------------|------------2-----------------------------|
G|--2-----4--2-----4---2-----|---2--2--2-----2--2--2--2--2--2-----------|
D|--0--------X---------2-----|---------------------------------4--------|
A|---------------------0--X--|---------------------0--------------0-----|
E|---------------------------|---2--------------------------------------|

e|---------------------------------------|
B|--2------------------------------------|
G|-----2--2--2--2--2--4--2--2--2--2------|
D|--0-----------0--------------------4---| x2
A|-----------------------0---------------|
E|--------------------------------------0|

e|---------------------------------------|---2-------------------------------|
B|--2-----------------------2--5---------|---------2--5----------------------|
G|-----2--2--2--2--4--2--2---------------|------2------------2-----2---------|
D|--0-----------0------------------------|----------------2-----2------------|
A|--------------------0------------------|------------0----------------------|
E|---------------------------------------|---2-------------------------------|

e|-----------------------------0-----|---2---4--2--0---------------------|
B|--0--0-----0--2-----------2--------|----------------2--0---------------|
G|--------2--------------2-----------|----------------------2------------|
D|--0-----------------2--------------|---4---------------------4---------|
A|-----------------0-----------------|----------------0------------------|
E|-----------------------------------|-----------------------------------|

e|--------------------0--|--2--------------------------------|
B|--0--2-----------2-----|--------2--5-----------------------|
G|--------2--2-----------|-----2------------2-----2----------|
D|--0--------------------|---------------2-----2-------------|
A|-----------0-----------|-----------0-----------------------|
E|--------------0--------|--2--------------------------------|

e|-----------------------------0---|------5---7---9--7--5--------------|
B|--0--0-----0--2-----------2------|--7--------------------7--7--------|
G|--------2--------------2---------|-----------------------------------|
D|--0-----------------2------------|--4--------------------------------|
A|-----------------0---------------|-----------------0-----------------|
E|---------------------------------|-----------------------------------|

e|-7--7--5--5-----------|---7--7--5--5---5--4---------------|
B|--------------5--7----|---7-------------------------------|
G|----------------------|-----------------------------------|
D|-0--------------------|---0-------------------------------|
A|----------0-----------|------------0----------------------|
E|----------------------|-----------------------------------|

e|--2--------------------5--4---|--2--4--2--------------------------|
B|--------2--5------------------|-----------5--2--------------------|
G|-----2--------2-----2---------|--------2--------------2--4--------|
D|-----------------2------------|--0--------------2--4--------------|
A|-----------0------------------|--------------0--------------------|
E|--2---------------------------|-----------------------------------|

e|----------------------------------|-----------------5--4--------------|
B|--2-----2-----2-----2--5--2--0----|-----------0-----------------------|
G|-----4-----4-----4----------------|--2-----2-----2--------------------|
D|--------2-------------------------|-----4-----------------------------|
A|--------------0-------------------|--5-----------0--------------------|
E|--2-------------------------------|-----------------------------------|

e|---2---------------------5--4----------|--2---4--2-------------------------|
B|---------2--5--------------------------|------------5--2-------------------|
G|------2--------2-----2-----------------|---------2--------------2--4-------|
D|------------------2--------------------|--0---------------2--4-------------|
A|------------0--------------------------|---------------0-------------------|
E|---2-----------------------------------|-----------------------------------|

e|---------------------------------------|-----------------------------------|
B|--2-----2-----2-----2--5--2--0---------|----------0---------5--7-----------|
G|-----4-----4-----4---------------------|-2-----2-----2---------------------|
D|--------2------------------------------|----4------------------------------|
A|--------------0------------------------|-5-----------0---------------------|
E|--2------------------------------------|-----------------------------------|

e|--7--7--5--5---------------------------|
B|--7------------------------------------|
G|---------------------------------------|
D|--0--------0---------------------------|
A|---------------------------------------|
E|---------------------------------------|            
Submit corrections

↑ Back to top | Tablatures and chords for acoustic guitar and electric guitar, ukulele, drums are parodies/interpretations of the original songs. You may use it for private study, scholarship, research or language learning purposes only