Home » W » Wiz Khalifa »

Wiz Khalifa - See You Again Tabs

Artists:  A B C D E F G H I J K L M N O P Q R S T U V W X Y Z # 

See You Again Tabs
Version #2
Wiz Khalifa


Copy URL
Intro repeat 3x
e|---------------------------------------------------------------------------------------|
B|----------------0----------------------------------------------------------------------|
G|-----2-0----0-2---2-0-2-----2-0-0------------------------------------------------------|
D|--0-------0--------------0-------------------------------------------------------------|
A|--3----------------------3-------------------------------------------------------------|
E|---------------------------------------------------------------------------------------|


Then follow the piano with the chord progression: CaddG G Eminor
If you follow the piano this repeats through the whole song.
e|--3-----3-----3---3---3---3--0----3-------------------------------------------------------------|
B|--0-----0-----0---0---0---0--0----0-------------------------------------------------------------|
G|--0-----0-----0---0---0---0--0----0-------------------------------------------------------------|
D|--2-----0-----2---0---2---0--2----0-------------------------------------------------------------|
A|--3-----2-----3---2---3---2--2----2-------------------------------------------------------------|
E|--x-----3-----x---3---x---3--0----3-------------------------------------------------------------|

Just to have background to the rap part I do some simple finger picking just kinda listen for
the note change and have fun with it.
e|---------------------------------------------------------------|
B|---------------------------------------------------------------|
G|--------------0-----------0-----------0---------------------0--|
D|--2-2-2-2-2-2---2-2-2-2-2---2-2-2-2-2---2-2-2-2-2---2-2-2-2----|
A|--------------------------------------------------0------------|
E|---------------------------------------------------------------|            
Submit corrections

↑ Back to top | Tablatures and chords for acoustic guitar and electric guitar, ukulele, drums are parodies/interpretations of the original songs. You may use it for private study, scholarship, research or language learning purposes only