» » »

Wir Sind Helden - Meine Beste Freundin Tabs

Artists:  A B C D E F G H I J K L M N O P Q R S T U V W X Y Z # 

Meine Beste Freundin Tabs

(ver. 1) Click to play this song!
Wir Sind Helden
 Rating:
4/5 (4 votes)

 Meine Beste Freundin lessons Tabs too difficult? Try these video lessons and learn fast
 
                Wir sind Helden - Meine beste Freundin


E---------------------------------------------------
H----3----------------------------------------------
G--------(4)--3--3~4-4-4---3~4-4-4------------------
D---------------------------------------------------
A---------------------------------------------------
E--3------------------------------------------------

E---------------------------------------------------
H------3---------3~----2~----1~---------------------
G---------2~-----4~----3~----2~---------------------
D-----------2---------------------------------------
A---2-----------------------------------------------
E---------------------------------------------------

quite quick song, just the intro, ...
ziemlich schnelles lied, nur das intro, ...

songtext:
Meine beste Freundin ist so schön
wenn wir zu zweit auf die straße gehn
schaun alle nur auf diese beine
und ich fühl mich nichtig nur so wichtig wie der dackel an der leine

meine beste freundin is herzerfrischend ehrlich
auch wenn seine wahrheit mir den tag versaut
so wie neulich als er sagte
"dieses schlauchkleid steht dir herrlich! ich finds toll wenn eine frau mit deinen hüften sich das traut!"

"du bist meine beste freundin" sagte ich, er sagte 
"danke! ich habe viel geübt! 
das hab ich alles bei beverly hills abgeschaut und etwas patros hinzugefügt"

das genügt!

ich will nicht mehr schwul mutti sein! 
sowieso sind deine kleider mir alle viel zu klein!
hör mir zu und sieh's ein
von heute an schminkst du dich allein!

meine beste freundin ist so schön
es macht kein' spass mit ihm auszugehn
all die jungs in den engen hosen wollen mich oder dich oder 
müssen wir losen

meine beste freundin will immer nur mein bestes
er will jeden schwarm als aller erstes sehn
es ist doch nur in meinem sinn wenn er die knaben zuerst testet ob die nicht wenns hart auf hart kommt vielleicht doch auf männer stehn

"du bist meine beste freundin" sagte ich, er sagte 
"danke! ich habe viel geübt! 
das hab ich alles bei beverly hills abgeschaut und etwas patros hinzugefügt"

das genügt!

ich will nicht mehr schwul mutti sein! 
sowieso sind deine kleider mir alle viel zu klein!
hör mir zu und sieh's ein
von heute an schminkst du dich allein!
            
Submit corrections


        Meine Beste Freundin lessons Hard to play? Try these video lessons and learn fast Meine Beste Freundin lessons
        
↑ Back to top | Tablatures and chords for acoustic guitar and electric guitar, ukulele, drums are parodies/interpretations of the original songs. You may use it for private study, scholarship, research or language learning purposes only