» » »

Wir Sind Helden - MüSsen Nur Wollen Bass

Artists:  A B C D E F G H I J K L M N O P Q R S T U V W X Y Z # 

MüSsen Nur Wollen Bass

(ver. 1) Click to play this song!
Wir Sind Helden
 Rating:
4/5 (4 votes)

 MüSsen Nur Wollen lessons Tabs too difficult? Try these video lessons and learn fast
 
                Intro/Chorus:
|-------------------------------------|
|-------------------------------------|
|-------------------------------------|
|-00000000-22222222-44444444-55555555-|


Verse:
|-------------------|
|-2-2-2-2-2-2-2-2-2-| 6x
|-------------------|
|-------------------|


Bridge:
|-----------------1-1-1-1-2-2-2-2-|
|-2-2-2-2-4-4-4-4-----------------|
|---------------------------------|
|---------------------------------|

|-------------------11111111-22222222-|
|-22222222-44444444-------------------|
|-------------------------------------|
|-------------------------------------|

Chorus 2x

Verse 8x

Bridge

Chorus 2x

Interlude:
|----------|
|----------|
|-22222222-| x8
|----------|

Last Bridge:
|-----------------1-1-1-1---------|
|-2-2-2-2-4-4-4-4-----------------|
|-------------------------0-0-0-0-|
|---------------------------------|

|-----------------1-1-1-1---------|
|-2-2-2-2-4-4-4-4-----------------|
|-------------------------0-0-0-0-|
|---------------------------------|

Chorus 7x
            
Submit corrections


        MüSsen Nur Wollen lessons Hard to play? Try these video lessons and learn fast MüSsen Nur Wollen lessons
        
↑ Back to top | Tablatures and chords for acoustic guitar and electric guitar, ukulele, drums are parodies/interpretations of the original songs. You may use it for private study, scholarship, research or language learning purposes only