» » »

Wir Sind Helden - Guten Tag Bass

Artists:  A B C D E F G H I J K L M N O P Q R S T U V W X Y Z # 

Guten Tag Bass

(ver. 1) Click to play this song!
Wir Sind Helden
 Rating:
4/5 (4 votes)

 Guten Tag lessons Tabs too difficult? Try these video lessons and learn fast
 
                Intro/Verse 1/Chorus 1:
|---------------2-345---------------2-3-4-|
|-----------4-5-----------------4-5-------|
|-3--3h6p3-------------3--3h6p3-----------| 15x
|-----------------------------------------|

Bridge:
|---------------2-345---------------2-3-6-|
|-----------4-5-----------------4-5-------|
|-3--3h6p3-------------3--3h6p3-----------|
|-----------------------------------------|


Verse 2/Chorus:
|---------------3-456---------------3-4-5-|
|-----------5-6-----------------5-6-------|
|-4--4h7p4-------------4--4h7p4-----------| 10x
|-----------------------------------------|

Interlude:
|----------------------|
|-4-----2--------------|
|-------------0--------| 2x
|--------------------3-|


Last Verse/Last Chorus:
|---------------4-567---------------4-5-6-|
|-----------6-7-----------------6-7-------|
|-5--5h8p5-------------5--5h8p5-----------| 10x
|-----------------------------------------|
            
Submit corrections


        Guten Tag lessons Hard to play? Try these video lessons and learn fast Guten Tag lessons
        
↑ Back to top | Tablatures and chords for acoustic guitar and electric guitar, ukulele, drums are parodies/interpretations of the original songs. You may use it for private study, scholarship, research or language learning purposes only