» » »

Wir Sind Helden - Nur Ein Wort Bass

Artists:  A B C D E F G H I J K L M N O P Q R S T U V W X Y Z # 

Nur Ein Wort Bass

(ver. 1) Click to play this song!
Wir Sind Helden
 Rating:
4/5 (4 votes)

 Nur Ein Wort lessons Tabs too difficult? Try these video lessons and learn fast
 
                Verse:
|-------------------------------------------------------------------------------------------------|
|-------------------------------------------------------------------------------------------------|
|-2--2--2--2--2--2--2--2--2--2--2--2-------------2--2--2--2---------------------------4--4--4--4--|
|-------------------------------------0--0--0--0--------------4--4--4--4--0--0--0--0--------------|

PreChorus
|-----------------------------------------------------------------|
|---------------------------------2-2-2-2-1-1-1-1-----1-1-2-2-4-4-|
|-2-2-2-2-1-1-1-1---------------------------------4-4-------------|
|-----------------4-4-4-4-2-2-2-2---------------------------------|

Chorus
|-------------------------------------------|
|-------------------2--1-1------1-1-2-2-4-4-|
|-2--2-2-----2-2------------4-4-------------| 2x
|---------4---------------------------------|

PreVerse
|-------------------------------------------------|
|-------------------------------------------------|
|-2--2--2--2--2--2--2--2--2--2--2--2--2--2--2--2--|
|-------------------------------------------------|

Verse

PreChorus

Chorus 2x

Interlude:
|-----------------------------------------------------------------|
|-----------------------------------------------------------------|
|-2-2-2-2-2-2-2-2-----------------4-4-4-4-4-4-4-4-----------------|
|-----------------4-4-4-4-4-4-4-4-----------------2-2-2-2-2-2-2-2-|

|-----------------------------------------------------------------|
|-----------------------------------------------------------------|
|-6-6-6-6-6-6-6-6-----------------4-4-4-4-4-4-4-4-----------------|
|-----------------4-4-4-4-4-4-4-4-----------------2-2-2-2-2-2-2-2-|

PreChorus

Chorus
            
Submit corrections


        Nur Ein Wort lessons Hard to play? Try these video lessons and learn fast Nur Ein Wort lessons
        
↑ Back to top | Tablatures and chords for acoustic guitar and electric guitar, ukulele, drums are parodies/interpretations of the original songs. You may use it for private study, scholarship, research or language learning purposes only