» » »

Wir Sind Helden - Denkmal Tabs

Artists:  A B C D E F G H I J K L M N O P Q R S T U V W X Y Z # 

Denkmal Tabs

(ver. 1) Click to play this song!
Wir Sind Helden
 Rating:
4.3/5 (6 votes)

 Denkmal lessons Tabs too difficult? Try these video lessons and learn fast
 
                Hello, this is my first Tab, and i think its right, so have fun. If you have any 
mail me at


----------------------------------------------------------------------------

Tuning: Guitar I: Standard(E-A-D-G-B-e)
        Guitar II: Standard(E-A-D-G-B-e)

Intro:
      Guitar I:
               e|----------------------------------|
               B|----------------------------------|
               G|-----------------6-6-6-6-6-6-6-6--| x2
               D|2-2-2-2-2-2-2-2--6-6-6-6-6-6-6-6--|
               A|2-2-2-2-2-2-2-2--4-4-4-4-4-4-4-4--|
               E|----------------------------------|

      Guitar II:
               e|----------------------------------|
               B|--------12-9----------------------|
               G|9-----6---------------------------| x2
               D|----------------------------------|
               A|----------------------------------|
               E|----------------------------------|

Verse:
      Guitar I:
               e|----------------------------------|
               B|----------------------------------|
               G|-----------------6-6-6-6-6-6-6-6--| x4
               D|2-2-2-2-2-2-2-2--6-6-6-6-6-6-6-6--|
               A|2-2-2-2-2-2-2-2--4-4-4-4-4-4-4-4--|
               E|----------------------------------|

      Guitar II:
               e|----------------------------------|
               B|----------------------------------|
               G|----8---9---8---------------------| x4
               D|------9---9---9------6---7---6----|
               A|7-7--------------4-4---4---4---4--|
               E|----------------------------------|

Chorus:
       Guitar I:
               e|-------------------------------------------------|
               B|-------------------------------------------------|
               G|4-4-4-4---------6-6-6-6--------------------------|
               D|4-4-4-4-2-2-2-2-6-6-6-6-6-6-6-6-7-7-7-7-2-2-2-2--|
               A|2-2-2-2-2-2-2-2-4-4-4-4-6-6-6-6-7-7-7-7-2-2-2-2--|
               E|------------------------4-4-4-4-5-5-5-5----------|

                 -------------------------------------------------|
                 -------------------------------------------------|
                 6-6-6-6------------------------------------------|
                 6-6-6-6-6-6-6-6-7-7-7-7-2-2-2-2-6-6-6-6-7-7-7-7--|
                 4-4-4-4-6-6-6-6-7-7-7-7-2-2-2-2-6-6-6-6-7-7-7-7--|
                 --------4-4-4-4-5-5-5-5---------4-4-4-4-5-5-5-5--|

                 ---------------------------|
                 ---------------------------|
                 4-4-4-4--------------------|
                 4-4-4-4-2-2-2-2-6-6-6-6-7--|
                 2-2-2-2-2-2-2-2-6-6-6-6-7--|
                 ----------------4-4-4-4-5--|

       Guitar II plays nothing in Chorus!


Instrumental:
             Guitar I:
               e|----------------------------------|
               B|----------------------------------|
               G|-----------------6-6-6-6-6-6-6-6--| x2
               D|2-2-2-2-2-2-2-2--6-6-6-6-6-6-6-6--|
               A|2-2-2-2-2-2-2-2--4-4-4-4-4-4-4-4--|
               E|----------------------------------|

      Guitar II:
               e|----------------------------------|
               B|--------12-9----------------------|
               G|9-----6---------------------------| x2
               D|----------------------------------|
               A|----------------------------------|
               E|----------------------------------|

Bridge:
       Guitar I:
               e|:----------------------------------|
               B|:----------------------------------|
               G|:4-4-4-4-4-4-4-4-------------------|
               D|:4-4-4-4-4-4-4-4-7-7-7-7-7-7-7-7---|
               A|:2-2-2-2-2-2-2-2-7-7-7-7-7-7-7-7---|
               E|:----------------5-5-5-5-5-5-5-5---|

                                          |--------1.-------|----2.-|
               e|------------------------:|-----------------|-------|
               B|------------------------:|-----------------|-------|
               G|----------------6-6-6-6-:|-----------------|4-4-4-4|
               D|2-2-2-2-2-2-2-2-6-6-6-6-:|6-6-6-6-7-7-7-7--|4-4-4-4|
               A|2-2-2-2-2-2-2-2-4-4-4-4-:|6-6-6-6-7-7-7-7--|2-2-2-2|
               E|------------------------:|4-4-4-4-5-5-5-5--|-------|

ORDER OF SONG:

Intro
Verse x2
Chorus
Instrumental
Verse
Chorus
Bridge
Chorus x2
            
Submit corrections


        Denkmal lessons Hard to play? Try these video lessons and learn fast Denkmal lessons
        
↑ Back to top | Tablatures and chords for acoustic guitar and electric guitar, ukulele, drums are parodies/interpretations of the original songs. You may use it for private study, scholarship, research or language learning purposes only