» » »

William Fitzsimmons - I Don't Feel It Anymore Tabs

Artists:  A B C D E F G H I J K L M N O P Q R S T U V W X Y Z # 

I Don't Feel It Anymore Tabs

(ver. 3) Click to play this song!
William Fitzsimmons
 Rating:
4/5 (4 votes)

 I Don't Feel It Anymore lessons Tabs too difficult? Try these video lessons and learn fast
 
                -------------------------------------------------------------------------------
                             I Don't Feel It Anymore - William Fitzsimmons
-------------------------------------------------------------------------------
pattern of the chords posted by someone who unfortunately is not 
registered. This is a start to it, because i know this tab impossible to 
find (at least I'm struggling to) to this is what i have so far, and any 
corrections or fixes are more than welcome to get a full tab out there, 
cause this is an amazing song. (play the g with equal time as the other 
chords, the h just takes up more room so the time seems different)

Tuning:Standard

Verse (start on verse and alternate)
   Am          Em          G              D  (3)
e|------0--------------------------------2----2-----|
B|-1------1----0----0(h1)--0---------------3----3---|
G|---2------2----0----0------0--------------2-----2-|   x8 for first verse, 
D|----2-----------2-----2-----0-------0--0----0-----|   x4 for second
A|-0----0------2----2-----------0h2-0---------------|
E|-------------------------3------------------------|

Chorus
   C           G              Am         Em
e|------0-------------------------0-----------------|
B|-1------1----0-------------1------1----0----0-----|
G|---0------0----0-------------2------2----0----0---|   x2 for both chorus
D|----2-----------0-------0-----2-----------2-----2-|
A|-3----3-----------0h2-0----0----0------2----2-----|
E|-------------3------------------------------------|

I know it's not entirely right, but i think it's a decent start, plus there 
are a lot of little fills and riffs to it, any improvements appreciated. 
(brackets indicate optional notes that can be added in that will help spice 
up the piece, working on getting more of those).

uses an odd chord for his fourth chord, if someone could figure out what 
that is it would be very helpful as he builds a lot of riffs in it which 
likely wont lend themselves to a d chord.

| /  slide up
| \  slide down
| h  hammer-on
| p  pull-off
| ~  vibrato
| +  harmonic
| x  Mute note
===============================================================================
            
Submit corrections


        I Don't Feel It Anymore lessons Hard to play? Try these video lessons and learn fast I Don't Feel It Anymore lessons
        
↑ Back to top | Tablatures and chords for acoustic guitar and electric guitar, ukulele, drums are parodies/interpretations of the original songs. You may use it for private study, scholarship, research or language learning purposes only