Home » W » William Fitzsimmons »

William Fitzsimmons - Funeral Dress Tabs

Artists:  A B C D E F G H I J K L M N O P Q R S T U V W X Y Z # 

Funeral Dress Tabs

(ver. 1) Click to play this song!
William Fitzsimmons

Capo 6, the fills are difficult to decipher as fitzy is insane on guitar. Heres my attempt

Intro/Verse Chords
PM
E|-----------------------------|
B|-----------------------------|
G|-------------------0---------|
D|--4--2---2-4-2-0---0---------|
A|--2--0-------------0---------|
E|-------------------3---------|

Chorus
E|--------------------|
B|--------------------|
G|----------0---------|
D|--2--4----0---------|
A|--0--0----0---------|
E|----------3---------|


A few variations in the verses i attempted to tab
E|---------------------------------|
B|---------------------------------|
G|-------------------0-------------|
D|--4--2---2h4p2p0---0---0h2-0-----|
A|--2--0-------------0--0----------|
E|-------------------3-------------|

E|--------------------------------------------|
B|--------------------------------------------|
G|-------------------0------------------------|
D|--4--2---2h4p2p0---0-----0h2-2h4-4(x4)-0----|
A|--2--0-------------0--0h2-------------------|
E|-------------------3------------------------|

E|---------------------------------------------|
B|---------------------------------------------|
G|-------------------0-------------2h4p2p0-----|
D|--4--2---2h4p2p0---0-----0h2-2h4---------2p0-|
A|--2--0-------------0--0h2--------------------|
E|-------------------3-------------------------|

hope this helps
            
Submit corrections

↑ Back to top | Tablatures and chords for acoustic guitar and electric guitar, ukulele, drums are parodies/interpretations of the original songs. You may use it for private study, scholarship, research or language learning purposes only