» » »

Wilco - Please Be Patient With Me Tabs

Artists:  A B C D E F G H I J K L M N O P Q R S T U V W X Y Z # 

Please Be Patient With Me Tabs

(ver. 2) Click to play this song!
Wilco
 Rating:
4/5 (4 votes)

 Please Be Patient With Me lessons Tabs too difficult? Try these video lessons and learn fast
 
                capo III

INTRO/VERSE
    C	      Dm	    E7
e|----3----0-----1-------------0--------0-----0-----0------|
B|------------3---------------------3-------------3-----0--|
G|----0--0-------2-----2-------1------1-----1---1-----0----|
D|------------3------3---3---------------------------------|
A|--3------------------------------------------------------|
E|--------------------------0-----0--------0---------------|

    F				Em
e|---------------------------------------------------------|
B|-----1--------0----1-----0-------0--------0----0----0----|
G|----------2-----------2-----0----0----0--------0--0------|
D|-----3------3------3-------------------------------------|
A|---------------------------------------------------------|
E|--1-----1--------1------------0-----0---0---0-----0---0--|

BRIDGE
    F				G
e|---------------------------------------------------------|
B|---------------------------------------------------------|
G|--------------------------------------0-----0-----0------|
D|------3---------3--2--0--2--------0-----0-----0-----0----|
A|-----------0------------------0h2---2-----2-----2-----2--|
E|---1----------1------------------------------------------|

    F				Em
e|---------------------------------------------------------|
B|---------------------------------------------------------|
G|-------------------------------------2------0--0---0-----|
D|------3---------3--2--0--2---------2----2------2-----2---|
A|-----------0---------------------2---------------------2-|
E|-0h1----------1---------------0-----------0--------------|

CHORUS
    A7			       Bb	     G
e|------0--------------------------------------------------|
B|--------2-0---2--0----2--0---------3-------------3-------|
G|----0-----0--------------0-------0---0---0-----0---0---0-|
D|-------------------------------3-------3-----0-------0---|
A|--0---------0-------0--------1-------------2-------------|
E|---------------------------------------------------------|

    C		 G	        Dm
e|-----3-0----------3-0-0----------1--------1--1--0--------|
B|---------1--------0---0-------3-----3-------------3------|
G|-----0-------0------2------------2----2------2--------2--|
D|-----------2------------------3---------3-----------3----|
A|--3------------------------------------------------------|
E|---------------3--------3--------------------------------|

OUTRO
    C		 G	        Em
e|-----3-0----------3-0-0----------------------------------|
B|---------1--------0---0----------0--------0----0----0----|
G|-----0-------0------2------------0----0--------0--0------|
D|-----------2---------------------------------------------|
A|--3------------------------------------------------------|
E|---------------3--------3-----0-----0---0---0-----0---0--|

    F				G	 C     G       C
e|---------------------------------3-0-0---------------0---|
B|-----1--------0----1-----0-------0---0-----1-----1---1---|
G|----------2-----------2-----0------2-------0-----0---0---|
D|-----3------3------3---------------------2-----------2---|
A|---------------------------------------3-------2-----3---|
E|--1-----1--------1------------3--------------3-----------|
            
Submit corrections


        Please Be Patient With Me lessons Hard to play? Try these video lessons and learn fast Please Be Patient With Me lessons
        
↑ Back to top | Tablatures and chords for acoustic guitar and electric guitar, ukulele, drums are parodies/interpretations of the original songs. You may use it for private study, scholarship, research or language learning purposes only