» » »

Wilco - Please Be Patient With Me Tabs

Artists:  A B C D E F G H I J K L M N O P Q R S T U V W X Y Z # 

Please Be Patient With Me Tabs

(ver. 1) Click to play this song!
Wilco
 Rating:
4/5 (4 votes)

 Please Be Patient With Me lessons Tabs too difficult? Try these video lessons and learn fast
 
                
Band: Wilco

Capo on third fret

This will help with some of the patterns.  It repeats itself so the whole song isn't here.


e|-----3-----0---------1---------------0------0---0----0----------------------|
B|-----------------3-----------3-----------3----------3---------1-----------1-|
G|-----0---0---0-------2---2----2------1----1-----1-----------------2--4------|
D|-----------------3--------------3-----------------------2-----3----3------3-|
A|--3-------------------------------------------------2-----------------------|
E|---------------------------------0------------0-----------0h1---1------1----|

e|-----------------------------------3----0-------1---------0---0---0---0-----|
B|---0-------0------0---0----------------------3-----3--------3--------3------|
G|--2---0--------0----------0--------0---0--0-----2---2-----1--1----1---------|
D|-----3-----2----2-----2----2-----------------3--------3-----------------2---|
A|-------------------------------3-------------0-----------------------2------|
E|--1------0---0-----0----0-------------------------------0-------0-----------|
                                     I  should warn you       when  I'm  not

e|-----------------------------------------------------------------------------|
B|-----1-----------1----0------0------0---0------------------------------------|
G|---------2--4--------2---0-------0----------0--------------------------------|
D|-----3----3------3------3----2----2-----2----2------3------3----2-----0-----0|
A|---------------------------------------------------------0---------023---0h2-|
E|-0h1---1------1------1-----0---0------0---0----0h1--1--1--1--1--1--1----1----|
   well                I can't tell               Oh there's nothing I can do

e|--------------------------------------------------------------------------|
B|--------------------------------------------------------------------------|
G|---0------0-----0-----------------------------------------2-----0---------|
D|------0------0-----0---------3-------3---2------0------2-----2-----2------|
A|-----2------2-----2---------------0---------023----0h2------2-----2-------|
E|--3------3-----3-----3--0h1--1--1--1--1--1--1----1------0------0-----0----|
                          to make this easier for you

                                            C         G   E7  F
e|----------------0-----0-----0-------------3-3-0-----3---0---1---------------|
B|----------------2-----3-----3-------------1-----1---0---3---1---------------|
G|----------------2-----2-----0-------------0---------0---1---2---------------|
D|----------------0-----0-----3-------------2---------0---2---3---------------|
A|----------------0-----1-----2-------------3---------2---2---3---------------|
E|----------------0-----0-----0-----------------------3---0---1---------------|
   Your gonna need   to be    patient with me
            
Submit corrections


        Please Be Patient With Me lessons Hard to play? Try these video lessons and learn fast Please Be Patient With Me lessons
        
↑ Back to top | Tablatures and chords for acoustic guitar and electric guitar, ukulele, drums are parodies/interpretations of the original songs. You may use it for private study, scholarship, research or language learning purposes only