» » »

Vince Gill - Santa Claus Is Coming To Town Tabs

Artists:  A B C D E F G H I J K L M N O P Q R S T U V W X Y Z # 

Santa Claus Is Coming To Town Tabs

(ver. 1) Click to play this song!
Vince Gill
 Rating:
4/5 (4 votes)

 Santa Claus Is Coming To Town lessons Tabs too difficult? Try these video lessons and learn fast
 
                (Part)
Vince Gill  -  Santa Claus Is Coming To Town - PART 1 (tab)



I'm too tired to tab anymore right now, so the rest of this song will be done
tomorrow.. :-)

This is up to the fiddle/piano solos starting at [1:18]


**************************************************************************************

/   =   slide up                                      p   =   pulloff

\   =   slide down                                    h   =   hammer-on

b   =   bend

**************************************************************************************


   [0:00]

E-------------------------------------------8/10-8-8------------------4/5-7-8-8-
B-----8-------6-----8--------6-----8-------6---------8-8-8-6-5-6-8-8------------
G--8/9---9-6/7---8/9----9-6-7---8/9---9-6/7-------6-6---------------------------
D------10-------------10------------10----------------6-6-----------------------
A-------------------------------------------------------------------------------
E-------------------------------------------------------------------------------


E-------------------------------------------------
B--4/5-6-8-7-8-7-8-9/10-8----------8-------6------
G------------------------10-10--8/9---9-6-7--4-5--
D-----------------------------------10------------
A-------------------------------------------------
E-------------------------------------------------

   [0:18]

E-----------------4/5-7-8-8-------------------------------------------------
B--6/8-6-5-6-8-8-------------4/5-6-8-7-8-7-8-9/10-8----------8-------6------
G--------------------------------------------------10-10--8/9---9-6-7--4-5--
D-------------------------------------------------------------10------------
A---------------------------------------------------------------------------
E---------------------------------------------------------------------------


E--8p7-8-10-10p8-7-8-------8p7-8-10-10p8-7-8----10p9-10-12-12p10-9-10------------
B-------------------10-10-------------------10-----------------------12-12-10/12-
G--------------------------------------------------------------------------------
D--------------------------------------------------------------------------------
A--------------------------------------------------------------------------------
E--------------------------------------------------------------------------------


E---------------------------------
B--13-12-13-13/15-15-13-12--------
G-------------------------14-12\--
D---------------------------------
A---------------------------------
E---------------------------------

   [0:35]

E-----------------4/5-7-8-8------------------------------------------------
B--6/8-6-5-6-8-8-------------4/5-6-8-7-8-7-8-9/10-8----------8-------6-----
G--------------------------------------------------10-10--8/9---9-6-7--4-5-
D-------------------------------------------------------------10-----------
A--------------------------------------------------------------------------
E--------------------------------------------------------------------------

                                                 rake
E---------------5-6-5-----------------------------------8---------------10-
B----------5-6-8-----8-7-6----------------------5--3------8-7-------8-10---
G-------5-7---------------8\7-5---5----5\----5-8--4-5-5--5----10-8/9-------
D--5\4-5-----------------------7-5-7/10---5h7----5---7---------------------
A--------------------------------------------------------------------------
E--------------------------------------------------------------------------


E--11b-8------------------------------------------------------------------5-
B--10b-8-11\10p8-10-8----------10---10---10---10---10-10---------------5-8--
G--------11\10p8-10-8h9----------8/9--8/9--8/9--8/9------8\7-5---5-7-7b-----
D----------------------10-7-10--------------------------------5h7-----------
A---------------------------------------------------------------------------
E---------------------------------------------------------------------------


E--8-6---------------------------8\6-5h6p5------------------------
B-----8-7-6------------------8-10---8-----8-7-6-------------------
G----------7/8\7-5---5----8/9------------------7/8\7p5-----5-5-5--
D-----------------7-5-7/10----------------------------7-5-7-------
A-----------------------------------------------------------------
E-----------------------------------------------------------------

   [1:00]

E--6/8-7-6-8-4/5------------5-5-8-8/10-8--8------------10/12--12-12-----------------
B---------------6---------6-------------11-9/10-------------13-------13-14/15-14-13-
G----------------5-----5-7--------------------------10-------------14---------------
D-----------------8-6/7------------------------10-12--------------------------------
A-----------------------------------------------------------------------------------
E-----------------------------------------------------------------------------------


E------------------------------------------11b-8--11/12-13-12-8------------------
B--11/12-----------------------------8-8\--10b-8--12/13-15-13-8-11\10p8-10-8-----
G-------12--12\10--9h10p9------------------------------0--------11\10p8-10-8-----
D---------12-----12------12-11-10-8/9---------------------------------------10-8-
A--------------------------------------------------------------------------------
E--------------------------------------------------------------------------------

                                                                 [1:17]

E------------------------5-5---------------------------8-11/12---------|
B---------------5----------------------------------8-10-------13-13\---|
G------------5-8-8p7p5-5--8-8-5-5-5----5----5-5-7/9--------------------|
D---------6-7---------7--------7---7/10-7/10---------------------------|
A--9\8p6-8-------------------------------------------------------------|
E----------------------------------------------------------------------|


            
Submit corrections


        Santa Claus Is Coming To Town lessons Hard to play? Try these video lessons and learn fast Santa Claus Is Coming To Town lessons
        
↑ Back to top | Tablatures and chords for acoustic guitar and electric guitar, ukulele, drums are parodies/interpretations of the original songs. You may use it for private study, scholarship, research or language learning purposes only