» » »

Vince Gill - Take Your Memory With You When You Go Tabs

Artists:  A B C D E F G H I J K L M N O P Q R S T U V W X Y Z # 

Take Your Memory With You When You Go Tabs

(ver. 1) Click to play this song!
Vince Gill
 Rating:
4/5 (4 votes)

 Take Your Memory With You When You Go lessons Tabs too difficult? Try these video lessons and learn fast
 
                Vince Gill: Take Your Memory With You When You Go(Solo)

This one is fairly straight ahead. Vince colors chords like a genious.
Make sure to hold the bends so you can get the proper release sound.
Enjoy! This one is not to hard to master and fun to play !


E----4-7-4-5---4---------------3/4-9-7---------------------
B--5---------7---5-----------5---------9\7-5---7bh(9)-(9)r7
G4-----------------4-------4-----------------6-------------
D---------------------7-5h6--------------------------------
A----------------------------------------------------------
E----------------------------------------------------------


E----------------------5-7/9-9/12-9-5----------------------
B-5\4-2--------------5----------------7bh(9)-(9)r7-5-4-5---
G-------5\4-3----4h6---------------------------------------
D----------------------------------------------------------
A----------------------------------------------------------
E----------------------------------------------------------

E-9\7-7p5---5\4----------------------7---------------------
B---------7-----5------------5-7bh(9)---(9)r7--------------
G-----------------4--------4-------------------------------
D----------------------5h6---------------------------------
A----------------------------------------------------------
E----------------------------------------------------------
            
Submit corrections


        Take Your Memory With You When You Go lessons Hard to play? Try these video lessons and learn fast Take Your Memory With You When You Go lessons
        
↑ Back to top | Tablatures and chords for acoustic guitar and electric guitar, ukulele, drums are parodies/interpretations of the original songs. You may use it for private study, scholarship, research or language learning purposes only