» » »

Vince Gill - One More Last Chance Tabs

Artists:  A B C D E F G H I J K L M N O P Q R S T U V W X Y Z # 

One More Last Chance Tabs

(ver. 2) Click to play this song!
Vince Gill
 Rating:
4/5 (4 votes)

 One More Last Chance lessons Tabs too difficult? Try these video lessons and learn fast
 
                
VINCE GILL   ONE M0RE LAST CHANCE

4-5-12 GENERIC  VERSION  IDEA

TAB  AKA  ALBLUES    ==ALBERT FISHER

YULEE FLORIDA  USA --1



INTRO
--------------------------------------
-1------------------------------------
-2b------------------------------------riff f
-----3B--0-------0--------------------
-------------0-3----------------------
--------------------------------------



D  RIFF
-----------------------------------------------------
-----------------------------------------------------
-----------------------------------------------------
-----------------------------------------------------
--0--2---3b--0-------0------0--0---2--3b-0----0------
-----------------3b------------------------3b--------




----------------------------------------------------
-----------------------------------------------------
------------------------------------------------------END OF D-RIFF
------------------------------------------------------
--0--2---3b--0-------0------0--0---2--3b-0----0--------
-----------------3b------------------------3b-----------2x
                             riff--f

-----------------------------------------
-----------------------------------------
-----------------------------------------
-----------------------------------------
--0-2-3-----3--2--3--0------0-------------
------------------------3B----------------
SHE WAS STANDING AT THE FROUNT DOOR




   G                             D RIFF  -2    
------------------------------------------------------
------------------------------------------------------
------0-----------------------------------------------
----2-----2B--0----0----------------------------------
-----------------3-----------------0--2--3--0------0--
-----------------------------------------------3B-----
WHEN I CAM HOME LAST NIGHT


-----------------------------------------------------
-----------------------------------------------------
-----------------------------------------------------
-----------------------------------------------------
--0--2--3--0-----0---------0--2--3--0-------0--------
--------------3B------------------------3B------------

THE GOOD  BOOK   IN HER LEFT HAND


  

  A                                                   D

---------------------------------------------------------
---------------------------------------------------------
---------------------------------------------------------
--------2------------2----------2-2-----------2-------0--
--3b-0--0----3b--0---0---3B--0--0-0----3B--0--0---3B-----
---------------------------------------------------------

AND A ROLLING PIN  IN HER RIGHT






D-RIFF-2             D-RIFF-2
--------------------------------------------
--------------------------------------------
--------------------------------------------
--------------------------------------------
--------------------------------------------
--------------------------------------------
SHE SAID  YOU COME  HOME FOR THE LAST TIME 


G RIFF                                  D  RIFF-2
-----------------------------------------------
-----------------------------------------------
-------0---------------------------------------
--2/5------2B----0-----------------------------
--------------3B-------------------------------
-----------------------------------------------
WITH THE WHISKEY ON YOUR BREATH



D-FRIFF-2
-------------------------------------------
-------------------------------------------
-------------------------------------------
-------------------------------------------
-------------------------------------------
-------------------------------------------

IF YOU DONT LISTEN TO MY PREACHING BOY



-------------------------------------------------
-------------------------------------------------
-----------2--2---------2--------2---------------
-----------2--2---------2--------0---------------
----3B--0--0--0---3B-0--0----3B-------------------
-------------------------------------------------
IM GONNA  HALF TO BEAT  YOU HALF TO DEATH







D-RIFF-2            2X
-------------------------------------------------------
-------------------------------------------------------
-------------------------------------------------------
-------------------------------------------------------
-------------------------------------------------------
-------------------------------------------------------




Chorus:	           D RIFF                  2X D-RIFF
	gimme just one more last chance


	G-RIFF                    D-RIFF,,,, 3x D riff
	before you say we're through


	I know I drive you crazy baby


A RIFF 2
------------------------------------------------------
------------------------------------------------------
-----------2-------2-----------5-5--4--2----------2---
-----------2-------2-----------5-5--4--2--4-0-----0---
----3B-0---O--3B-0-0--3B-0---------------------3B-----
------------------------------------------------------


		 A-RIFF-2
	it's the best that I can do



			D RIFF 2x
	we're just some good ole boys a'makin noise





		G RIFF                 D- RIFF---1x
	I ain't running 'round on you



 RIFF W
  G                    D RIFF--1x
------------------------------------------------------
------------------------------------------------------
------------------------------------------------------
--------0-----0---------------------------------------
-----3B----3B-----------------------------------------
------------------------------------------------------


	RIFF-W
	   G        D
	gimme just one more last chance


RIFF 3

   A                  D                   D-RIFF--4X WITH FIDDLE
-----------------------------------------
-----------------------------------------
----------2--2--------------2------------
----------2--2--------------0------------
---3B-2-0-0--0----------3----------------
-----------------------------------------

      RIFF-3
	A                    D
	before you say we're through


D-RIFF

At first she hid my glasses


        G-RIFF

	because she knows that I can't see



      D RIFF
	she said you ain't goin' nowhere boy



A RIFF S
--------------------------------------------------------------
--------------------------------------------------------------
--------------2--2-------2--2-------2-2-------2--2-------2----
---------/\---2--2-------2--2-------2-2-------2--2-------0----
------3B/--2--0--0---3B--0--0--3B---0-0---3B--0--0----3B------
--------------------------------------------------------------


        A RIFF S

	until you spend a little time with me




      D-RIFF

	then the boys called from the honky tonk




        G RIFF  

	said there's a party goin' on down here




        D-RIFF

	well she might'a took my car keys



RIFF  W

  A                          D          D-RIFF
-----------------------------------------                    
------------------------------------------
-----------2-2-------2-2----------2-------
-----------2-2-------2-2----------0-------
----3B--2--0-0---3B--0-0-----3B------------
-------------------------------------------


       RIFF W

	but she forgot about my old John Deere







	[CHORUS]
                      D
       gimme just one more last chance
	G                    D
	before you say we're through

	I know I drive you crazy baby
		 A
	it's the best that I can do
			D
	we're just some good ole boys a'makin noise
		G                 D
	I ain't running 'round on you
		   G        D
	gimme just one more last chance
	A                    D
	before you say we're through





Solo:	over chorus




D      G               D          A        D         G



D               G          D         A         D

SOLO 

D
----------------/\------------------/\-------------------
--------3--3-5B/---3-----3/1-----1B/---1-----------------
-----------------------4------2--------------------------
--/--4---------------------------------------------------
---------------------------------------------------------
---------------------------------------------------------


--------3----------------------------/--5----
------------6--5-3--------------5-5B/--------
---/-4-----------------3-H-4--7--------------
---------------------------------------------
---------------------------------------------
---------------------------------------------


D
--8-------/\----------------------------
-------5B/------3----3----3-------------
--------------4--------5----5-----------
----------------------------------------
----------------------------------------
----------------------------------------


                   
--------5-------5----------------------------
------------8B-------------------------------
----7B---------------9/8-----5---------------
--------------------------7----7-------------
---------------------------------------------
---------------------------------------------



----------------------------------------------
------------3---------------------------------
-7/--5---0--4-----2B--0---0-------------------
-----------------------2B------3-H-2-P-0---0--
-----------------------------------------3----
----------------------------------------------

                                          ~~  S
---1------------------------------------------
------1----------------------------------------
-----------3B--0----------------------7-7-7-/--
----------------------3--3--2-0----------------
--------------------------------3/-8-----------
-----------------------------------------------


-------------------------------
---3-----3---5-----------------
---------4---------------------
------5---------5--------------
-------------------------------
-------------------------------



-------------------------------
-------3----6-5-3---3----------
------------------6------------
--3/-5-------------------------
-------------------------------
-------------------------------


-----------------------------
-----------------------------
---5-H-4-P-2---2-------------
-------------5---------------
-----------------------------
-----------------------------



----------2--------------------
--6----5--3--------------------
--5----5--2--------------------
-------------------------------
-------------------------------
-------------------------------



----------------------------------
---------3-----6B-3---------------
----------------------------------
-2-/--4---------------------------
----------------------------------
----------------------------------


----------------------------------
--------3---/--1------------------
-----------------2--0-------------
-----5-----------------3--0-------
----------------------------------
----------------------------------


GENERIC SOLO













	CHORUS
                     D

       gimme just one more last chance
	G                    D
	before you say we're through

	I know I drive you crazy baby
		 A
	it's the best that I can do
			D
	we're just some good ole boys a'makin noise
		G                 D
	I ain't running 'round on you
		   G        D
	gimme just one more last chance
	A                    D
	before you say we're through




	gimme just one more last chance
	before you say we're through





THIS  IS JUST  A IDEA    
THIS IS A GOOD TIME TO  PULL OF A COUNTRY STYLE 
SOLO OF YOUR OWN IN THE KEY OF D

ALSO  THEIR  IS A LOT OF HONKY TONK FILLS OR YOU
 CAN SAY ROCK A BILLY STYLE








































































            
Submit corrections


        One More Last Chance lessons Hard to play? Try these video lessons and learn fast One More Last Chance lessons
        
↑ Back to top | Tablatures and chords for acoustic guitar and electric guitar, ukulele, drums are parodies/interpretations of the original songs. You may use it for private study, scholarship, research or language learning purposes only