» » »

U2 - Elevation Tabs

Artists:  A B C D E F G H I J K L M N O P Q R S T U V W X Y Z # 

Elevation Tabs

(ver. 3) Click to play this song!
U2
 Rating:
4/5 (4 votes)

 Elevation lessons Tabs too difficult? Try these video lessons and learn fast
 
                ARTIST : U2
tuning:EADGBe

INTRO

|-------------------------------------------------|
|-------------------------------------------------|
|-------------------------------------------------|     x 7
|-------------------------------------------------|
|--7-7-7-7-7-7----7-7-7-7-7-7---------------------|
|--7-7-7-5-5-5----7-7-7-5-5-5---------------------|

|-------------------|           |------------------------------|
|-------------------|           |------------------------------|
|--9-------9--------|     x 7   |------------------------------|     
|--9--7----9---7----|           |--9-9---7-7-7-7-7-------------|
|--7--7----7---7----|           |--9-9---7-7-7-7-7-------------|
|-----5--------5----|           |--7-7---5-5-5-5-5-------------|


 High  higher than     the sun   You shoot me from a 
|-------------------------------------------------|
|-------------------------------------------------|
|----------------------9--------------------------|                                |--9------7-7-7---x----9--------9-9-9-9-9----x----|
|--9------7-7-7---x----7--------7-7-7-7-7----x----|
|--7------5-5-5---x-------------------------------|


|-------------------------------------------------|
|-------------------------------------------------|
|------------------------------x------------------|      x 7                       |--9-9-x----7-7----9-9-9-9-9-9-x------------------|
|--9-9-x----7-7----7-7-7-7-7-7-x------------------|
|--7-7-x----5-5-----------------------------------|


|-------------------------------------------------|
|-------------------------------------------------|
|---------------9-9-9-9---------------------------|      x 2                       |--9-9---7-7----9-9-9-9---------------------------|
|--9-9---7-7----7-7-7-7---------------------------|
|--7-7---5-5--------------------------------------|


|-------------------------------------------------|
|-------------------------------------------------|
|------------------------------x------------------|     x 8                        |--9-9-x----7-7----9-9-9-9-9-9-x------------------|  
|--9-9-x----7-7----7-7-7-7-7-7-x------------------|
|--7-7-x----5-5-----------------------------------|






|-------------------|           |------------------------------|
|-------------------|           |------------------------------|
|--9-------9--------|     x 7   |--------------------9---------|     
|--9--7----9---7----|           |--9-9---7-7-7-7-7---9---------|
|--7--7----7---7----|           |--9-9---7-7-7-7-7---7---------|
|-----5--------5----|           |--7-7---5-5-5-5-5-------------|


[no]
   Love
   Lift me up out of these blues
   Won't you tell me something true
   I believe in you


|-------------------------------------------------|
|-------------------------------------------------|
|------------------------------x------------------|      x 5                       |--9-9-x----7-7----9-9-9-9-9-9-x------------------|
|--9-9-x----7-7----7-7-7-7-7-7-x------------------|
|--7-7-x----5-5-----------------------------------|


              Elevation
|------------------------|
|------------------------| 
|--9--7--9---------------|     x 3
|--9--7--9---------------|
|------------------------|
|------------------------|


|-------------------|         |------------------------------|
|-------------------|         |------------------------------|
|--9-9--------------|    x 7  |------------------------------|     
|--9-9---7-7--------|         |--9-9---7-7-7-7-7---2---------|
|--7-7---7-7--------|         |--9-9---7-7-7-7-7---2---------|
|--------5-5--------|         |--7-7---5-5-5-5-5---0---------|
            
Submit corrections


        Elevation lessons Hard to play? Try these video lessons and learn fast Elevation lessons
        
↑ Back to top | Tablatures and chords for acoustic guitar and electric guitar, ukulele, drums are parodies/interpretations of the original songs. You may use it for private study, scholarship, research or language learning purposes only