Home » T » Two Gallants »

Two Gallants - We Are Undone Tabs

Artists:  A B C D E F G H I J K L M N O P Q R S T U V W X Y Z # 

We Are Undone Tabs

(ver. 1) Click to play this song!
Two Gallants
Tuning: Standard

CAPO 3

e|-------6h8--8--8-8x-6--8--6---6--0---6-------------------------------------------------------------|
B|---6h8------8--8-8x---------8----0-----8-----------------------------------8-----------------------|
G|---------------------------------------------------8h10-10--10-10--8--8h10---10-8---------8--------|
D|----------------------------------------------8h10---------------------------------10-10----8-10---|
A|---------------------------------------------------------------------------------------------------|
E|---------------------------------------------------------------------------------------------------|

Repeats 4 times before the verse, but on the fourth time there are a couple of minor changes:

e|-------6h8--8--8-8x-6--8-10-8-6----6b7-------------------------------------------------------------|
B|---6h8------8--8-8x--------------8-----8-----------------------------------8-----------------------|
G|---------------------------------------------------8h10-10--10-10--8--8h10---10-8---------8--------|
D|----------------------------------------------8h10---------------------------------10-10----8-10---|
A|---------------------------------------------------------------------------------------------------|
E|---------------------------------------------------------------------------------------------------|
            
Submit corrections

↑ Back to top | Tablatures and chords for acoustic guitar and electric guitar, ukulele, drums are parodies/interpretations of the original songs. You may use it for private study, scholarship, research or language learning purposes only