Home » T » Two Gallants »

Two Gallants - The Hand That Held Me Down Tabs

Artists:  A B C D E F G H I J K L M N O P Q R S T U V W X Y Z # 

The Hand That Held Me Down Tabs

(ver. 1) Click to play this song!
Two Gallants
Studio version: Down 1 half step

intro / verse

   F  /  G       C               
E|-------0-------------0---------|
B|---3-----5-------------1-----1-|
G|-----2-----4-----0-------0-----|
D|-3-----5-----5-----2-------2---|
A|---------------3---------------|
E|-------------------------------|


   F  /  G       G               
E|-------0-------------3---------|
B|---3-----5-------------0-----0-|
G|-----2-----4-----0-------0-----|
D|-3-----5-----5-----0-------0---|
A|-------------------------------|
E|---------------3---------------|


   F  /  G     Dm  C         F         G   
E|-------0---------------------3---3-3-1-0-------------|
B|---3-----5---6---5---1-------------------3---0h1h3-3-|
G|-----2-----4-7---5---0-0-----------------0-----------|
D|-3-----5-----------------2---------------------------|
A|-------------5---3---3-------------------------------|
E|---------------------------1-------------3-----------|


   F  /  G       C               
E|-------0-------------0---------|
B|---3-----5-------------1-----1-|
G|-----2-----4-----0-------0-----|
D|-3-----5-----5-----2-------2---|
A|---------------3---------------|
E|-------------------------------|


   F  /  G       G               
E|-------0-------------3---------|
B|---3-----5-------------0-----0-|
G|-----2-----4-----0-------0-----|
D|-3-----5-----5-----0-------0---|
A|-------------------------------|
E|---------------3---------------|


try some fingerpicking, listen to the song:

C    Am   F    G6
8    5         0
8    5         0/3
9    5         0
10   7         0
10   7         2
8    5         3

chorus
C    C    C    G    Am    G    F    C   G6
8    8    8    3    0     0/3           0 
10   8    10   3/5  1     0/3           3
9    9    9    4    2     0             0
10   10   10   5    2     0             0
-    10   -    5    0     2             2
-    8    -    3    -     3             3

and ever since your epitaph was splattered on my wall...
C    G    F  C  G   x2

outro x2
C    C    Am    G
8    -    5     3    
10   8    6     3
9    9    5     4
10   9    7     5
-    10   7     5
-    -    5     3

end on G6 C
       0
       3
       0
       0
       2
       3
            
Submit corrections

↑ Back to top | Tablatures and chords for acoustic guitar and electric guitar, ukulele, drums are parodies/interpretations of the original songs. You may use it for private study, scholarship, research or language learning purposes only