Home » T » Two Gallants »

Two Gallants - Steady Rollin' Tabs

Artists:  A B C D E F G H I J K L M N O P Q R S T U V W X Y Z # 

Steady Rollin' Tabs

(ver. 1) Click to play this song!
Two Gallants
Intro and chorus


   C					F
E |-3-----3--------3-3---1--0--------|-------------------0-1-0---------|
B |----------------------------3-----|--1----------3----------3--------|
G |--------------------------------0-|-------2----------2--------2-----|
D |-----2--------2-------2-------2---|-----3---------3---2-----3-------|
A |-3-------3--------3------3--------|---------------------------------|
E |----------------------------------|--1------1-----------------------|

  C			G	  c
|-----------------1-0----------|---------------------------------------|
|-1--0h13-1-------------3------|1---------1--------1---------1---------|
|-0----------0---------------0-|-----0--------0---------0-----------0--|
|-----------2-----0-------0----|---2--------2--------2----------2------|
|-3----------------------------|3-------3--------3---------3-----------|
|--------------3------3--------|---------------------------------------|

Verse
c				    F
|----------------------------------|----------------------------------|
|-------1-------1--------1-------1-|-------1-------1--------1------1--|
|---0-------0--------0-------0-----|---2-------2--------2-------2-----|
|-----2-------2--------2-------2---|-----3-------3--------3-----------|
|-3-------3-------3-------3--------|----------------------------------|
|----------------------------------|-1-------1-------1-------1--------|

 F/B				    G		      F
|----------------------------------|-----3--1-0--------------0--------|
|-------1--------1--------1-----3--|------------------1-1--3----------|
|---2-------2-------2-------2------|---------------0--2-2---------0---|
|-----0-------0-------0------------|-----0-------0-------------0------|
|----------------------------------|----------------------------------|
|-2-------2--------2-------2-------|-3------3---------1---------------|
            
Submit corrections

↑ Back to top | Tablatures and chords for acoustic guitar and electric guitar, ukulele, drums are parodies/interpretations of the original songs. You may use it for private study, scholarship, research or language learning purposes only