Home » T » Two Gallants »

Two Gallants - Katy Kruelly Tabs

Artists:  A B C D E F G H I J K L M N O P Q R S T U V W X Y Z # 

Katy Kruelly Tabs

(ver. 1) Click to play this song!
Two Gallants
Capo: 8

   Intro:

   B7
e ----------------------------------------------------------------------|
B ---0-------0-------0-------0-------0-------0-------0-------0-------0--|
G -------2-------2-------2-------2-------2-------2-------2-------2------|
D ---------1---------------1---------------1---------------1------------|
A -2---------------2---------------2---------------2---------------2----|(3)
E ----------------------------------------------------------------------|

   Riff:

   C               Fmaj7           G6              Fmaj7
e ---------0h3---------------0-------------0-----------------------|
B ---1h3-4---------------1h3---------3-------3-------3-----1-------|
G ---------0---------0h2---------0-----0---------0-----2-----0h2-0-|
D ---2/3-----------------3---------------------0---------------0---|
A -3---------------------------------------------------------------|
E -------------0---1-----------1---3-----3---------1-----1---------|

   Verse:

   C               Fmaj7           C               Fmaj7
e -----3---3p0-----0-------------------3-----3-----0-----0---------|
B -------------------3---1---------------------------3-----------1-|
G -------0-------0-----------2---0-------0-------0-----------2-----|
D -----2-------2-------3-------3-------2-------2-------3-------3---|
A -3-------3-----------------------3-------3-----------------------|
E -----------------1-------------------------------1---------------|

   C               D/F#            Fmaj7           C
e -----3-----------0---------------0-------------------------------|
B -----------1-------3---1-------------3---1-------------1---------|
G -------0-------0-----------2---0---2-------2---0-----------0---0-|
D -----2-------2-------0-------0-------3-------3-------2-------2---|
A -3-------3---------------------------------------3-------3-------|
E -----------------2---------------1-------------------------------|            
Submit corrections

↑ Back to top | Tablatures and chords for acoustic guitar and electric guitar, ukulele, drums are parodies/interpretations of the original songs. You may use it for private study, scholarship, research or language learning purposes only