» » »

Train - Marry Me Tabs

Artists:  A B C D E F G H I J K L M N O P Q R S T U V W X Y Z # 

Marry Me Tabs

(ver. 8) Click to play this song!
Train
 Rating:
4.3/5 (25 votes)

 Marry Me lessons Tabs too difficult? Try these video lessons and learn fast
 
                [Intro]
e|---------------------------------------------|----------------------------------|
B|-1-----------1-----------1-----------1-------|--1-----------1-----------1-------|
G|-------0-----------0-----------0-----------0-|--------0-----------0-----------0-|
D|----2-----------2-----------2-----------2----|-----2-----------2-----------2----|
A|-3--------3-----------3-----------3----------|--0--------0-----------0----------|
E|---------------------------------------------|----------------------------------|

e|-------------|---------------------------------------------------------------|
B|-----1-------|---------------------------------------------------------------|
G|-----------0-|---------------------------------------------------------------|
D|--------2----|---------------------------------------------------------------|
A|--0----------|---------------------------------------------------------------|
E|-------------|---------------------------------------------------------------|            
Submit corrections


        Marry Me lessons Hard to play? Try these video lessons and learn fast Marry Me lessons
        
↑ Back to top | Tablatures and chords for acoustic guitar and electric guitar, ukulele, drums are parodies/interpretations of the original songs. You may use it for private study, scholarship, research or language learning purposes only