Home » T » Tragically Hip »

Tragically Hip - Streets Ahead Bass

Artists:  A B C D E F G H I J K L M N O P Q R S T U V W X Y Z # 

Streets Ahead Bass

(ver. 1) Click to play this song!
Tragically Hip
[VERSE 1]
 
    he------------------------------------ad    I couldn't
                                                    sleep a
G|--------------|--------------|--------------|--------------|
D|--------------|--------------|--------------|--------------|
A|--------------|--------------|--------------|--------------|
E|--6--6--6--6--|--6--6--6--6--|--6--6--6--6--|--6--6--6--6--|
 
 
    wi------------------------------------nk   Staring in the
G|--------------|--------------|--------------|--------------|
D|--------------|--------------|--------------|--------------|
A|--6--6--6--6--|--6--6--6--6--|--6--6--6--6--|--6--6--6--6--|
E|--------------|--------------|--------------|--------------|
 
 
    da----------------------------------rk By   the
                                                 light of your
G|--------------|--------------|--------------|--------------|
D|--------------|--------------|--------------|--------------|
A|--------------|--------------|--------------|--------------|
E|--6--6--6--6--|--6--6--6--6--|--6--6--6--6--|--6--6--6--6--|
 
 
    sk-------------------------------in At my    self    sit
G|--------------|--------------|--------------|--------------|
D|--------------|--------------|--------------|--------------|
A|--6--6--6--6--|--6--6--6--6--|--6--6--6--6--|--6--6--6--6--|
E|--------------|--------------|--------------|--------------|
 
 
    -------------------------------tin           on a   suit
G|--------------|--------------|--------------|--------------|
D|--------------|--------------|--------------|--------------|
A|--8--8--8--8--|--8--8--8--8--|--8--8--8--8--|--8--8--8--8--|
E|--------------|--------------|--------------|--------------|
 
 
    ca --------------------------- se      Or   as the sleeping
G|--------------|--------------|--------------|--------------|
D|--------------|--------------|--------------|--------------|
A|--6--6--6--6--|--6--6--6--6--|--6--6--6--6--|--6--6--6--6--|
E|--------------|--------------|--------------|--------------|
 
 
    you ------------------------- th            in the upset
G|--------------|--------------|--------------|--------------|
D|--------------|--------------|--------------|--------------|
A|--------------|--------------|--------------|--------------|
E|--4--4--4--4--|--4--4--4--4--|--4--4--4--4--|--4--4--4--4--|
 
    sleigh                                           they don't
G|--------------|--------------|--------------|--------------|
D|--------------|--------------|--------------|-----------6--|
A|--------------|--------------|--------------|--------6-----|
E|--6--8--8--8--|--6--8--8--8--|--6--8--6--8--|--6--8--------|
 
 
[SHORT CHORUS]
 
 
    wait            they won't    wait           they run with
G|--------------|--5-----------|--------------|--------------|
D|--8--6--8-----|-----8--6-----|--------------|--5-----------|
A|--------------|--------------|--8--6--8-----|-----8--6-----|
E|--------------|--------------|--------------|--------------|
 
 
     the wea              -               ther     they don't
G|--------------|--------------|--------------|--------------|
D|--------------|--------------|--------------|-----------6--|
A|--------------|--------------|--------------|--------6-----|
E|--6--8--8--8--|--6--8--8--8--|--6--8--6--8--|--6--8--------|
 
 
    wa                  -              -             -
G|--------------|--5-----------|--------------|--------------|
D|--8--6--8-----|-----8--6-----|--------------|--5-----------|
A|--------------|--------------|--8--6--8-----|-----8--6-----|
E|--------------|--------------|--------------|--------------|
 
 
        -              it                       listen you can
 
G|--------------|--------------|--------------|--------------|
D|--------------|--------------|--------------|--------------|
A|--------------|--------------|--------------|--------------|
E|--6--8--8--8--|--6--8--8--8--|--6--8--8--8--|--6--8--8--8--|
 
 
 
[VERSE 2]
 
 
    he--------------------------ar             The sound of the
G|--------------|--------------|--------------|--------------|
D|--------------|--------------|--------------|--------------|
A|--------------|--------------|--------------|--------------|
E|--6--6--6--6--|--6--6--6--6--|--6--6--6--6--|--6--6--6--6--|
 
    sle-----------------------------------igh   The panting
                                                      of the
G|--------------|--------------|--------------|--------------|
D|--------------|--------------|--------------|--------------|
A|--6--6--6--6--|--6--6--6--6--|--6--6--6--6--|--6--6--6--6--|
E|--------------|--------------|--------------|--------------|
 
 
    te-------------------------------am     Of all   runners
                                                       a  -
G|--------------|--------------|--------------|--------------|
D|--------------|--------------|--------------|--------------|
A|--------------|--------------|--------------|--------------|
E|--6--6--6--6--|--6--6--6--6--|--6--6--6--6--|--6--6--6--6--|
 
 
    w-------------------------------ay   And  all the gentle
G|--------------|--------------|--------------|--------------|
D|--------------|--------------|--------------|--------------|
A|--6--6--6--6--|--6--6--6--6--|--6--6--6--6--|--6--6--6--6--|
E|--------------|--------------|--------------|--------------|
 
 
    wo-------------------------------rk             of the tra
G|--------------|--------------|--------------|--------------|
D|--------------|--------------|--------------|--------------|
A|--8--8--8--8--|--8--8--8--8--|--8--8--8--8--|--8--8--8--8--|
E|--------------|--------------|--------------|--------------|
 
 
    c --------------------------- es      their jingle jangle
G|--------------|--------------|--------------|--------------|
D|--------------|--------------|--------------|--------------|
A|--6--6--6--6--|--6--6--6--6--|--6--6--6--6--|--6--6--6--6--|
E|--------------|--------------|--------------|--------------|
 
 
    je ------------------------- rk         destroying all
G|--------------|--------------|--------------|--------------|
D|--------------|--------------|--------------|--------------|
A|--------------|--------------|--------------|--------------|
E|--4--4--4--4--|--4--4--4--4--|--4--4--4--4--|--4--4--4--4--|
 
    spa              -                   ce          they won't
G|--------------|--------------|--------------|--------------|
D|--------------|--------------|--------------|-----------6--|
A|--------------|--------------|--------------|--------6-----|
E|--6--8--8--8--|--6--8--8--8--|--6--8--6--8--|--6--8--------|
 
 
 
[LONG CHORUS]
 
 
    wait            they don't    wait           they run with
G|--------------|--5-----------|--------------|--------------|
D|--8--6--8-----|-----8--6-----|--------------|--5-----------|
A|--------------|--------------|--8--6--8-----|-----8--6-----|
E|--------------|--------------|--------------|--------------|
 
 
     the wea              -    ther                they don't
G|--------------|--------------|--------------|--------------|
D|--------------|--------------|--------------|-----------6--|
A|--------------|--------------|--------------|--------6-----|
E|--6--8--8--8--|--6--8--8--8--|--6--8--6--8--|--6--8--------|
 
 
    wa                  -              -             -
G|--------------|--5-----------|--------------|--------------|
D|--8--6--8-----|-----8--6-----|--------------|--5-----------|
A|--------------|--------------|--8--6--8-----|-----8--6-----|
E|--------------|--------------|--------------|--------------|
 
 
        -              it                        they  don't
G|--------------|--------------|--------------|--------------|
D|--------------|--------------|--------------|--------------|
A|--------------|--------------|--------------|--------------|
E|--6--8--8--8--|--6--8--8--8--|--6--8--6--8--|--6--8--8--8--|
 
 
 
    wait            they won't    wait           just stay to
G|--------------|--5-----------|--------------|--------------|
D|--8--6--8-----|-----8--6-----|--------------|--5-----------|
A|--------------|--------------|--8--6--8-----|-----8--6-----|
E|--------------|--------------|--------------|--------------|
 
 
     ge              -    ther                they don't
G|--------------|--------------|--------------|--------------|
D|--------------|--------------|--------------|-----------6--|
A|--------------|--------------|--------------|--------6-----|
E|--6--8--8--8--|--6--8--8--8--|--6--8--6--8--|--6--8--------|
 
 
    wa                  -              -                  it
G|--------------|--5-----------|--------------|--------------|
D|--8--6--8-----|-----8--6-----|--------------|--------------|
A|--------------|--------------|--8--6--8-----|--6--8--------|
E|--------------|--------------|--------------|--------------|
 
 
G|--------------|--------------|--------------|--------------|
D|--5--5--5--5--|--5--5--5--5--|--5--5--5--5--|--5--5--5--5--|
A|--------------|--------------|--------------|--------------|
E|--------------|--------------|--------------|--------------|
 
 
[BRIDGE]
 
                                   wa   -   ai   -     ait
G|--------------|--------------|--------------|--------------|
D|--6--6--6--6--|--6--6--6--8--|--------------|--------------|
A|--------------|--------------|--8--8--8--8--|--6--8--6-----|
E|--------------|--------------|--------------|--------------|
 
 
G|--------------|--------------|--------------|--------------|
D|--------------|--------------|--------------|--------------|
A|--------------|--------------|--------------|--------------|
E|--6--8--8--8--|--6--8--8--8--|--6--8--8--8--|--6--8--8--8--|
 
 
     wa                        -                     ait
G|--------------|--------------|--------------|--------------|
D|--6--6--6--6--|--6--6--6--8--|--------------|--------------|
A|--------------|--------------|--8--8--8--8--|--6--8--6-----|
E|--------------|--------------|--------------|--------------|
 
 
G|--------------|--------------|--------------|--------------|
D|--------------|--------------|--------------|--------------|
A|--------------|--------------|--------------|--------------|
E|--6--8--8--8--|--6--8--8--8--|--6--8--6--8--|--6--8--8--8--|
 
 
     wa                        -                     ait
G|--------------|--------------|--------------|--------------|
D|--6--6--6--6--|--6--6--6--8--|--------------|--------------|
A|--------------|--------------|--8--8--8--8--|--6--8--6-----|
E|--------------|--------------|--------------|--------------|
 
 
G|--------------|--------------|--------------|--------------|
D|--------------|--------------|--------------|--------------|
A|--------------|--------------|--------------|--------------|
E|--6--8--8--8--|--6--8--8--8--|--6--8--6--8--|--6--8--8--8--|
 
 
     wa                        ai                    ait
G|--------------|--------------|--------------|--------------|
D|--6--6--6--6--|--6--6--6--8--|--------------|--------------|
A|--------------|--------------|--8--8--8--8--|--6--8--6-----|
E|--------------|--------------|--------------|--------------|
 
 
[OUTRO]
 
    ple - ea - ease               just  st ay - ay  - ay
 
G|--------------|--------------|--------------|--------------|
D|--5--5--5--5--|--5--5--5--5--|--5--5--5--5--|--5-----------|
A|--------------|--------------|--------------|--------------|
E|--------------|--------------|--------------|-----3--3--3--|
 
                                  to      -      ge     -
 
G|--------------|--------------|--------------|--------------|
D|--3--3--3--3--|--3--3--3--3--|--3--3--3--3--|--3--1--3--1--|
A|--------------|--------------|--------------|--------------|
E|--------------|--------------|--------------|--------------|
 
    - ther
 
G|--------------|--------------|--------------|--------------|
D|--------------|--------------|--------------|--------------|
A|--3-----------|--------------|--------------|--------------|
E|--------------|--------------|--------------|--------------|
 
 
[LONG CHORUS]
 
 
    wait            they don't    wait           they run with
G|--------------|--5-----------|--------------|--------------|
D|--8--6--8-----|-----8--6-----|--------------|--5-----------|
A|--------------|--------------|--8--6--8-----|-----8--6-----|
E|--------------|--------------|--------------|--------------|
 
 
     the wea              -    ther                they don't
G|--------------|--------------|--------------|--------------|
D|--------------|--------------|--------------|-----------6--|
A|--------------|--------------|--------------|--------6-----|
E|--6--8--8--8--|--6--8--8--8--|--6--8--6--8--|--6--8--------|
 
 
    wa                  -              -             -
G|--------------|--5-----------|--------------|--------------|
D|--8--6--8-----|-----8--6-----|--------------|--5-----------|
A|--------------|--------------|--8--6--8-----|-----8--6-----|
E|--------------|--------------|--------------|--------------|
 
 
        -              it                        they  don't
G|--------------|--------------|--------------|--------------|
D|--------------|--------------|--------------|--------------|
A|--------------|--------------|--------------|--------------|
E|--6--8--8--8--|--6--8--8--8--|--6--8--6--8--|--6--8--8--8--|
 
 
 
    wait            they won't    wait           just stay to
G|--------------|--5-----------|--------------|--------------|
D|--8--6--8-----|-----8--6-----|--------------|--5-----------|
A|--------------|--------------|--8--6--8-----|-----8--6-----|
E|--------------|--------------|--------------|--------------|
 
 
     ge              -    ther                they don't
G|--------------|--------------|--------------|--------------|
D|--------------|--------------|--------------|-----------6--|
A|--------------|--------------|--------------|--------6-----|
E|--6--8--8--8--|--6--8--8--8--|--6--8--6--8--|--6--8--------|
 
 
    wa                  -              -                  it
G|--------------|--5-----------|--------------|--------------|
D|--8--6--8-----|-----8--6-----|--------------|--------------|
A|--------------|--------------|--8--6--8-----|--6--8--------|
E|--------------|--------------|--------------|--------------|
 
 
G|--------------|--------------|--------------|--------------|
D|--5--5--5--5--|--5--5--5--5--|--5--5--5--5--|--5--5--5--5--|
A|--------------|--------------|--------------|--------------|
E|--------------|--------------|--------------|--------------|
 
 
[BRIDGE]
 
                                   wa   -   ai   -     ait
G|--------------|--------------|--------------|--------------|
D|--6--6--6--6--|--6--6--6--8--|--------------|--------------|
A|--------------|--------------|--8--8--8--8--|--6--8--6-----|
E|--------------|--------------|--------------|--------------|
 
 
G|--------------|--------------|--------------|--------------|
D|--------------|--------------|--------------|--------------|
A|--------------|--------------|--------------|--------------|
E|--6--8--8--8--|--6--8--8--8--|--6--8--8--8--|--6--8--8--8--|
 
 
     wa                        -                     ait
G|--------------|--------------|--------------|--------------|
D|--6--6--6--6--|--6--6--6--8--|--------------|--------------|
A|--------------|--------------|--8--8--8--8--|--6--8--6-----|
E|--------------|--------------|--------------|--------------|
 
 
G|--------------|--------------|--------------|--------------|
D|--------------|--------------|--------------|--------------|
A|--------------|--------------|--------------|--------------|
E|--6--8--8--8--|--6--8--8--8--|--6--8--6--8--|--6--8--8--8--|
 
 
     wa                        -                     ait
G|--------------|--------------|--------------|--------------|
D|--6--6--6--6--|--6--6--6--8--|--------------|--------------|
A|--------------|--------------|--8--8--8--8--|--6--8--6-----|
E|--------------|--------------|--------------|--------------|
 
 
G|--------------|--------------|--------------|--------------|
D|--------------|--------------|--------------|--------------|
A|--------------|--------------|--------------|--------------|
E|--6--8--8--8--|--6--8--8--8--|--6--8--6--8--|--6--8--8--8--|
 
 
     wa                        ai                    ait
G|--------------|--------------|--------------|--------------|
D|--6--6--6--6--|--6--6--6--8--|--------------|--------------|
A|--------------|--------------|--8--8--8--8--|--6--8--6-----|
E|--------------|--------------|--------------|--------------|
 
 
[OUTRO]
 
    ple - ea - ease               just  st ay - ay  - ay
 
G|--------------|--------------|--------------|--------------|
D|--5--5--5--5--|--5--5--5--5--|--5--5--5--5--|--5-----------|
A|--------------|--------------|--------------|--------------|
E|--------------|--------------|--------------|-----3--3--3--|
 
                                  to      -      ge     -
 
G|--------------|--------------|--------------|--------------|
D|--3--3--3--3--|--3--3--3--3--|--3--3--3--3--|--3--1--3--1--|
A|--------------|--------------|--------------|--------------|
E|--------------|--------------|--------------|--------------|
 
    - ther           [fade out]
 
G|--------------|
D|--------------|
A|--3-----------|
E|--------------|
            
Submit corrections

↑ Back to top | Tablatures and chords for acoustic guitar and electric guitar, ukulele, drums are parodies/interpretations of the original songs. You may use it for private study, scholarship, research or language learning purposes only