» » »

Tragically Hip - Springtime In Vienna Bass

Artists:  A B C D E F G H I J K L M N O P Q R S T U V W X Y Z # 

Springtime In Vienna Bass

(ver. 1) Click to play this song!
Tragically Hip
 Rating:
4.4/5 (5 votes)

 Springtime In Vienna lessons Tabs too difficult? Try these video lessons and learn fast
 
                [Intro/Verse]
Repeat until Chorus

G|---------------------------------------------------------------------------|
D|---------------------------------------------------------------------------|
A|-5-----5\4\3------3-2-----2-x-2/3------------------------------------------|
E|---5----------3-------2----------------------------------------------------|



[Chorus]

G|---------------------------------------------------------------------------|
D|---------------------------------------------------------------------------|
A|-----------------------------------5-5-5-5-5-5-5-5-5-5-5-5-5-5-5-5---------|
E|-5-5-5-5-5-5-5-5--3-3-3-3-3-3-3-3------------------------------------------|


[Outro]

G|----------------------------------------------------------------------------|
D|----------------------------------------------------------------------------|
A|-5---5--3---3-2-------------------------------------------------------------|
E|---5------3-----------------------------------------------------------------|

            
Submit corrections


        Springtime In Vienna lessons Hard to play? Try these video lessons and learn fast Springtime In Vienna lessons
        
↑ Back to top | Tablatures and chords for acoustic guitar and electric guitar, ukulele, drums are parodies/interpretations of the original songs. You may use it for private study, scholarship, research or language learning purposes only