» » »

Tragically Hip - Ineviility Of Death Tabs

Artists:  A B C D E F G H I J K L M N O P Q R S T U V W X Y Z # 

Ineviility Of Death Tabs

(ver. 1) Click to play this song!
Tragically Hip
 Rating:
4/5 (4 votes)

 Ineviility Of Death  lessons Tabs too difficult? Try these video lessons and learn fast
 
                Intro / Verse 1

Guitar 1
e|---------------------------------------------------------------------------|
B|---------------------------------------------------------------------------|
G|--2---2-2-2---2--2---2-2-2------------------------2-4p2--------------------|
D|--2---2-2p1---1-h2---2-2p1------------------------2-2-2------------0h2h4-4-|
A|-------------------------------------------------------------------------4-|
E|-------------------------------------------------------------------------2-|

Guitar 2                          F#
e|---------------------------------------------------------------------------|
B|---------------------------------------------------------------------------|
G|---------------------------------------------------------------------------|
D|--------------------------------4-4-4-4-4--4-4-4-4-4--4-4-4-4-4--4-4-4-4-4-|
A|--------------------------------4-4-4-4-4--4-4-4-4-4--4-4-4-4-4--4-4-4-4-4-|
E|-----------------------------0-h2-2-2-2-0-h2-2-2-2-0-h2-2-2-2-0-h2-2-2-2-2-|

Bass
e|---------------------------------------------------------------------------|
B|---------------------------------------------------------------------------|
G|---------------------------------------------------------------------------|
D|---------------------------------------------------------------------------|
A|------------------7h9------------------------------------------------------|
E|----------------------7h9----0-h2-0h2-0h2-0h2-0h2-0h2-0h2-0h2-0h2-0h2-0h2--|

F#
Puffy lips glistening skin, and everything comes rushing in

Guitar 1
e|---------------------------------------------------------------------------|
B|-----------5--4------------------------------------------------------------|
G|-----------------4---------------------------------------------------------|
D|---------------------------------------------------------------------------|
A|---------------------------------------------------------------------------|
E|---------------------------------------------------------------------------|

A
We don't go to hell the memories of us do
F#
I get a sense of connectedness, exclusive tight but nothing dangerous
A                  E                     F#
We don't go to hell the memories of us do
A                                          B
And if you go to hell I'll still remember you


Chorus

Guitar 1
e|---------2------------------------2----------------------------------------|
B|------2------------------------2-------------------------------------------|
G|----------------------2--4---------------------2--4------------------------|
D|---4----------------4-------4----------------4-----------------------------|
A|---------------------------------------------------------------------------|
E|---------------------------------------------------------------------------|

Bass
e|---------------------------------------------------------------------------|
B|---------------------------------------------------------------------------|
G|---------------------------------------------------------------------------|
D|---------4----2--1-----------------4----2--1-------------------------------|
A|------4-------------2-----------4-------------2----------------------------|
E|---2-------------------------2---------------------------------------------|

F#                                    A              E
But I thought you beat the death of inevitability to death just a little bit
F#                            A                  E
I thought you beat the inevitability of death to death just a little bit
F#                                A              E
I thought you beat the death of inevitability to death just a little bit
F#                            A                  E
I thought you beat the inevitability of death to death just a little bit


Verse 2
F#
Terry's gift is forever green, it got me up and back on the scene
A
We don't go to hell just our memories do
F# 
Fantastic gap, common space, open concept in your smiling face
A                  E                     F#
We don't go to hell the memories of us do
A                    B
And if you go to hell I'll still remember you


Chorus

Guitar 1
e|---------2----------2----------2------------0--2--------2------------0--2--|
B|------2----------2----------2------------------------2---------------------|
G|---------------------------------------------------------------------------|
D|---4----------4----------4------------------------4------------------------|
A|---------------------------------------------------------------------------|
E|---------------------------------------------------------------------------|

Bass
e|---------------------------------------------------------------------------|
B|---------------------------------------------------------------------------|
G|---------------------------------------------------------------------------|
D|---------4----------4----------4---2--1-----------------4---2--1-----------|
A|------4----------4----------4------------2-----------4------------2--------|
E|---2----------2----------2------------------------2------------------------|

F#                                    A              E
But I thought you beat the death of inevitability to death just a little bit
F#                                A              E
I thought you beat the death of inevitability to death just a little bit
F#                                A              E
I thought you beat the death of inevitability to death just a little bit
F#                            A                  E
I thought you beat the inevitability of death to death just a little bit
F#                                A              E 
I thought you beat the death of inevitability to death just a little bit
F#                            A                  E
I thought you beat the inevitability of death to death just a little bit
            
Submit corrections


        Ineviility Of Death  lessons Hard to play? Try these video lessons and learn fast Ineviility Of Death  lessons
        
↑ Back to top | Tablatures and chords for acoustic guitar and electric guitar, ukulele, drums are parodies/interpretations of the original songs. You may use it for private study, scholarship, research or language learning purposes only