» » »

Tim Mcgraw - Sing Me Home ( Tabs

Artists:  A B C D E F G H I J K L M N O P Q R S T U V W X Y Z # 

Sing Me Home ( Tabs

(ver. 2) Click to play this song!
Tim Mcgraw
 Rating:
4/5 (4 votes)

 Sing Me Home ( lessons Tabs too difficult? Try these video lessons and learn fast
 
                "(Full)
(Intro)
Sing Me Home
Tim McGraw

I know Korry already posted this song's intro, but I took it a step further 
and added the rest of the licks...If you play it like I notated below, it 
should sound just like the recording (this is the lead in the 
beginning...if you want the chords, check Korry's, it's right on.

Capo 1, all tabs rel.

Repeat following three times:
E|-----------------------------------------|]
B|-----------------------------------------|]
G|-------4--------------------------------*|]
D|---4/6---6p4----7--7-7-7--9--9-9-9------*|]
A|-------------7--7--7-7-7--7--7-7-7-------|]
E|-----------------------------------------|]

followed by:

E|------------------------------------------|
B|----------4h5-5-5--5-5---5-5-5-5--5-------|
G|------4---4h6-6-6--4-4---4h6-6-6--4-------|
D|--4h6---6-4h6-6-6------6-6-6-6-6--6-6p4---|
A|----------------------------------------2-|
E|------------------------------------------|

The above is not only the intro, but constitutes a verse, as well.

Peace out.
"            
Submit corrections


        Sing Me Home ( lessons Hard to play? Try these video lessons and learn fast Sing Me Home ( lessons
        
↑ Back to top | Tablatures and chords for acoustic guitar and electric guitar, ukulele, drums are parodies/interpretations of the original songs. You may use it for private study, scholarship, research or language learning purposes only