Home » T » Tim Mcgraw »

Tim Mcgraw - Sing Me Home ( Tabs

Artists:  A B C D E F G H I J K L M N O P Q R S T U V W X Y Z # 

Sing Me Home ( Tabs

(ver. 1) Click to play this song!
Tim Mcgraw
Capo1

*Numbers Relative to Capo*


Repeat 3 times
               A     A     A   E     E
E|-------------0-----0-----0----------------|
B|-------------2-----2-----2----------------|
G|---4---------2-----2-----2---1-----1-----*|
D|-6---4/2-2---2-----2-----2---2-----2-----*|
A|---------------0-0---0-0---0-2-----2------|
E|-------------------------------0-0--------|

          C#m   C#m   C#m C#m   C#m   C#m
E|---------2-----2-----2---2-----2-----2----|
B|---------3-----3-----3---3-----3-----3----|
G|------4--4-----4-----4---4-----4-----4----|
D|-4-h6----4-----4-----4---4-----4-----4----|
A|---------2-----2-----2---2-----2-----2----|
E|-----------2-2---2-2---2---2-2---2-2---2--|
            
Submit corrections

↑ Back to top | Tablatures and chords for acoustic guitar and electric guitar, ukulele, drums are parodies/interpretations of the original songs. You may use it for private study, scholarship, research or language learning purposes only