Home » T » Tim Mcgraw »

Tim Mcgraw - Indian Outlaw Tabs

Artists:  A B C D E F G H I J K L M N O P Q R S T U V W X Y Z # 

Indian Outlaw Tabs

(ver. 4) Click to play this song!
Tim Mcgraw
                Tim McGraw - Indian Outlaw (intro)



Em     =   022000         E11     =   000000

B      =   x24442         B11     =   x22222

A      =   x02220         A11     =   x00000

***********************************************************************

CHORDS 

Em  Em11  Em  B  B11  B  A  A11  A  A11  Em  (x2) 



LEAD GUITAR
                    
E---------------------------------------------
B----------5-3-5---4-2-4---2-0-2--------------
G--9--9\---4-2-4---4-2-4---2-0-2--2/4-2-0-----
D--9--9\---------------------------------2----
A--7--7\----------2-------0-------------------
E---------0-----------------------------------


E---------------------------------|
B---5-3-5---4-2-4---2-0-2---------|
G---4-2-4---4-2-4---2-0-2---------|
D--------------------------5b-2---|
A----------2-------0--------------|
E--0------------------------------|
            
Submit corrections

↑ Back to top | Tablatures and chords for acoustic guitar and electric guitar, ukulele, drums are parodies/interpretations of the original songs. You may use it for private study, scholarship, research or language learning purposes only