» » »

Tim Mcgraw - Indian Outlaw Tabs

Artists:  A B C D E F G H I J K L M N O P Q R S T U V W X Y Z # 

Indian Outlaw Tabs

(ver. 3) Click to play this song!
Tim Mcgraw
 Rating:
4/5 (4 votes)

 Indian Outlaw lessons Tabs too difficult? Try these video lessons and learn fast
 
                Tim McGraw - Indian Outlaw (lead)



I have the dance version of this song, so I don't know if the fills
are the same on the original...


***********************************************************************

/   =   slide up                              b   =   bend

p   =   pulloff                               br  =   bend & release

h   =   hammer-on

***********************************************************************



FIRST INSTRUMENTAL


E------------------------------------------------------------------
B------------------------------------------------------------------
G------------------------------------------------------------------
D------------------------------4------5b---------------------------
A----------------2-2--2-2-2-4/6----5/7--7-5-7-----------------2-2--
E--0----0-0-0-2/4---------------5---------------0----0-0-0-2/4-----


E---------------------------------------------------------------------|
B----------------------------3/5--3-5--3-5p3--------------------------|
G-------------------------------------------4-4-----------------------|
D-----------4------5b-----------------------------5/7--5-7--7br-p5----|
A--2-2-2-4/6----5/7--7-5-7----------------------------------------7-7-|
E------------5--------------------------------------------------------|



SECOND INSTRUMENTAL (Same as first, different ending)



E------------3-3b--------------------------3br---------------|
B--3-5-5-3-5-------3-5-5-3h5p3----3-5-5-3-5-----3-5-5-3b-5---|
G-----------------------------4------------------------------|
D------------------------------------------------------------|
A------------------------------------------------------------|
E------------------------------------------------------------|
            
Submit corrections


        Indian Outlaw lessons Hard to play? Try these video lessons and learn fast Indian Outlaw lessons
        
↑ Back to top | Tablatures and chords for acoustic guitar and electric guitar, ukulele, drums are parodies/interpretations of the original songs. You may use it for private study, scholarship, research or language learning purposes only