» » »

Thrice - A Living Dance Upon Dead Minds Tabs

Artists:  A B C D E F G H I J K L M N O P Q R S T U V W X Y Z # 

A Living Dance Upon Dead Minds Tabs

(ver. 3) Click to play this song!
Thrice
 Rating:
4/5 (4 votes)

 A Living Dance Upon Dead Minds lessons Tabs too difficult? Try these video lessons and learn fast
 
                Thrice - A Living Dance Upon Dead Minds 


Tuning Drop C#- strings are C#, Ab, Db, Gb, Bb, eb 



GUITAR ONE'S PARTS 
------------------ 

Intro: (4x) (twice clean and muted, twice with distortion) 
e|-------------------5-6-5---5-------------------5-6-5---5-----| 
B|-------6-6-6-8-8-8-------8---------6-6-6-8-8-8-------8---8-6-| 
G|-7-7-7-----------------------7-7-7---------------------------| 
D|-------------------------------------------------------------| 
A|-------------------------------------------------------------| 
D|-------------------------------------------------------------| 


Verse: (2x) 
e|---------------------------------------------------------------------------| 
B|---5-6-5-8-5-6-5---5-6-5-8-5-6-5---5-6-5-8-5-6-5---5-5h6p5-----5-----------| 
G|-7---------------7---------------7---------------7----------5----7-7-7-6---| 
D|-----------------------------------------------------------------x-x-x-x---| 
A|-----------------------------------------------------------------5-5-5-4---| 
D|---------------------------------------------------------------------------| 
................................................... 
e|-------------------------------------------------------------------| 
B|-------------------------------------------------------------------| 
G|-6-6-9--9-9-9-10-10-10-10-10-10-10-9--9-9-14--14-14-14-12-12-10-10-| 
D|-x-x-x--x-x-x--x--x--x--x--x--x--x-x--x-x--x---x--x--x--x--x--x--x-| 
A|-4-4-7--7-7-7--8--8--8--8--8--8--8-7--7-7-12--12-12-12-10-10--8--8-| 
D|-------------------------------------------------------------------| 


Prechorus: 
e|-------1-----0-----0-----0h1p0---0-------1-----0-----0-----0h1p0---0-------| 
B|-----1---1-----1-----1---------1-------1---1-----1-----1---------1---------| 
G|-----------3-----3-----3-----------2---------2-----2-----2-----------------| 
D|---------------------------------------------------------------------------| 
A|-1-------------------------------------------------------------------------| 
D|---------------------------------------------------------------------------| 

e|-------1-----0-----0-----0h1p0---3-------1-----0-----3-3-3-3-3-3-3-3-| 
B|-----1---1-----1-----1---------1-------1---1-----1---1-1-1-1-1-1-1-1-| 
G|-----------3-----3-----3-----------2---------2-----2-----------------| 
D|---------------------------------------------------------------------| 
A|-1-------------------------------------------------------------------| 
D|---------------------------------------------------------------------| 


Chorus: (not sure about this part) 
e|---------------------------------------------------------------------------| 
B|---------------------------------------------------------------------------| 
G|-10x--10x--10x--10x--9x--9x--9-9-9-9-10x--10x--10x--10x--9x--9x--9-9-9-9---| 
D|--x----x----x----x---x---x---x-x-x-x--x----x----x----x---x---x---x-x-x-x---| 
A|--8x---8x---8x---8x--8x--8x--8-8-8-8--8x---8x---8x---8x--8x--8x--8-8-8-8---| 
D|---------------------------------------------------------------------------| 

e|-------------------------------------------------------------------------| 
B|-------------------------------------------------------------------------| 
G|-10-10-10-10-10-10-10-10-9-9-9-9-9-9-9-9-9-9-9-9-9-9-9-9-7-7-7-7-7-7-7-7-| 
D|--x--x--x--x--x--x--x--x-x-x-x-x-x-x-x-x-x-x-x-x-x-x-x-x-x-x-x-x-x-x-x-x-| 
A|--8--8--8--8--8--8--8--8-8-8-8-8-8-8-8-8-7-7-7-7-7-7-7-7-5-5-5-5-5-5-5-5-| 
D|-------------------------------------------------------------------------| 


Bridge: (2x) 
e|--------------------------------------------------------------------------| 
B|--------------------------------------------------------------------------| 
G|-7-7-7-10--10-10-12--12-12-12-14--15--7-7-7-10--10-10-12--12-12-12-14--12-| 
D|-x-x-x--x---x--x--x---x--x--x--x---x--x-x-x--x---x--x--x---x--x--x--x---x-| 
A|-5-5-5--8---8--8-10--10-10-10-12--13--5-5-5--8---8--8-10--10-10-10-12--10-| 
D|--------------------------------------------------------------------------| 


2nd Verse: 
e|--------------------------------------------------------------------------| 
B|---5-6-5-8-5-6-5---5-6-5-8-5-6-5---5-6-5-8-5-6-5---5-6-5-6h8p6--5h6p5-----| 
G|-7---------------7---------------7---------------7------------------------| 
D|--------------------------------------------------------------------------| 
A|--------------------------------------------------------------------------| 
D|--------------------------------------------------------------------------| 
....................................................... 
e|----------------------------------------------------------------------| 
B|---5-6-5-8-5-6-5---5-6-5-8-5-6-5---5-6-5-8-5-6-5---5-6-5-5h6p5--------| 
G|-7---------------7---------------7---------------7--------------5h7p5-| 
D|----------------------------------------------------------------------| 
A|----------------------------------------------------------------------| 
D|----------------------------------------------------------------------| 
....................................................... 



2nd Verse Cont'd: (4x) 
e|-----------------------------------| 
B|-----------------------------------| 
G|-7-7-7-5--5-5-9--9-9-9-10-10-10-10-| 
D|-x-x-x-x--x-x-x--x-x-x--x--x--x--x-| 
A|-5-5-5-3--3-3-7--7-7-7--8--8--8--8-| 
D|-----------------------------------| 


2nd Chorus: (3x) 2nd Chorus Cont'd: 
e|-----------------------------------------|---------------------------------| 
B|-----------------------------------------|---------------------------------| 
G|-10-10-10-10-10-10-10-10-9-9-9-9-9-9-9-9-|-9-9-9-9-9-9-9-9-7-7-7-7-7-7-7-7-| 
D|--x--x--x--x--x--x--x--x-x-x-x-x-x-x-x-x-|-x-x-x-x-x-x-x-x-x-x-x-x-x-x-x-x-| 
A|--8--8--8--8--8--8--8--8-8-8-8-8-8-8-8-8-|-7-7-7-7-7-7-7-7-5-5-5-5-5-5-5-5-| 
D|-----------------------------------------|---------------------------------| 


2nd Chorus Cont'd: (3x) 
e|-----------------------------------------| 
B|-----------------------------------------| 
G|-10-10-10-10-10-10-10-10-9-9-9-9-9-9-9-9-| 
D|--x--x--x--x--x--x--x--x-x-x-x-x-x-x-x-x-| 
A|--8--8--8--8--8--8--8--8-8-8-8-8-8-8-8-8-| 
D|-----------------------------------------| 


2nd Chorus Cont'd: 
e|-----------------------------------------| 
B|-----------------------------------------| 
G|-9-9-9-9-9-9-9-9-14-14-14-12-12-12-10-10-| 
D|-x-x-x-x-x-x-x-x--x--x--x--x--x--x--x--x-| 
A|-7-7-7-7-7-7-7-7-12-12-12-10-10-10--8--8-| 
D|-----------------------------------------| 


Interlude: (4x) 
e|-------------------------------------------| 
B|-------------------------------------------| 
G|-------------------------------------------| 
D|---3--3--3---3--3--3---3--3--3-5-5-5-5-5-5-| 
A|-5-5--5--5-5-5--5--5-5-5--5--5-3-3-3-3-3-3-| 
D|-------------------------------------------| 
......................................... 


Interlude Cont'd: 
e|---------------------------------------------------------------------------| 
B|---------------------------------------------------------------------------| 
G|---------------------7--7--7---7--7--7---------------------7--7--7---6--6--| 
D|---------------------x--x--x---x--x--x---------------------x--x--x---x--x--| 
A|-0--0--0--0--0--0--0-5--5--5-0-5--5--5-0--0--0--0--0--0--0-5--5--5-0-4--4--| 
D|-0--0--0--0--0--0--0---------0---------0--0--0--0--0--0--0---------0-------| 
................... . ................... . 
e|---------------------------------------------------------------------------| 
B|---------------------------------------------------------------------------| 
G|-6---------------------14--14--14---14--14--14---------------------14--14--| 
D|-x----------------------x---x---x----x---x---x----------------------x---x--| 
A|-4-0--0--0--0--0--0--0-12--12--12-0-12--12--12-0--0--0--0--0--0--0-12--12--| 
D|---0--0--0--0--0--0--0------------0------------0--0--0--0--0--0--0---------| 
................... . ................... 
e|----------------------| 
B|----------------------| 
G|-14-14/15-15-15-15-15-| 
D|--x--x--x--x--x--x--x-| 
A|-12-12/13-13-13-13-13-| 
D|----------------------| 


Ending: (4x) End On: 
e|-------------------------------------------------------------|--------| 
B|-------------------------------------------------------------|--------| 
G|-7-7-7-14-14-14-7-7-7-12-12-12-6-6-6-12-12-12-7-7-7-12-10-10-|---7~---| 
D|-x-x-x--x--x--x-x-x-x--x--x--x-x-x-x--x--x--x-x-x-x--x--x--x-|---x----| 
A|-5-5-5-12-12-12-5-5-5-10-10-10-4-4-4-10-10-10-5-5-5-10--8--8-|---5~---| 
D|-------------------------------------------------------------|--------| 



GUITAR TWO'S PARTS 
------------------ 
Intro: (listen very closely to the right channel) 
e|-------------------------------------------------------------| 
B|-------------------------------------------------------------| 
G|-----------------------------2-2-2-2-2-2-3-3-3-3-3-3-3-3-3-3-| 
D|-3-3-3-3-3-3-5-5-5-5-5-5-5-5---------------------------------| 
A|-------------------------------------------------------------| 
D|-------------------------------------------------------------| 
........................................................... 


Intro Cont'd: (2x) 
e|-------------------------------------------------------------------| 
B|-------------------------------------------------------------------| 
G|-------------------------------------------------------------------| 
D|-10-10-10-10-10-10-8--8-8-8-8-8-10-10-10-10-10-10-8--8-8-8-8-8-8-8-| 
A|--8--8--8--0--0--0-5--5-5-5-5-5--8--8--8--0--0--0-5--5-5-5-5-5-5-5-| 
D|--8--8--8--0--0--0-5--5-5-5-5-5--8--8--8--0--0--0-5--5-5-5-5-5-5-5-| 


Verse: (2x) 
e|---------------------------------------------------------------------------| 
B|---------------------------------------------------------------------------| 
G|---------------------------------------------------------------------------| 
D|-7-7-7-7-7-7-7-9-9-9-9-9-10-10-7-7-7-7-7-7-7-9-9-9-9-9-10-10-10-10---------| 
A|-5-5-5-4-4-4-4-7-7-7-7-7--8--8-5-5-5-4-4-4-4-7-7-7-7-7--8--8--8--8-5-5-5-5-| 
D|-0-0-0-0-0-0-0-0-0-0-0-0--0--0-0-0-0-0-0-0-0-0-0-0-0-0--0--0--0--0-5-5-5-5-| 
... ..... ....... ... ..... ....... 
e|---------------------------------------------------------| 
B|---------------------------------------------------------| 
G|---------------------------------------------------------| 
D|---------------------------------------------------------| 
A|-5-5-5-5-5-5-5-5-5-5-5-5-7-7-7-7-7-7-7-7-7-7-7-7-7-7-7-7-| 
D|-5-5-5-5-5-5-5-5-5-5-5-5-7-7-7-7-7-7-7-7-7-7-7-7-7-7-7-7-| 


Prechorus: 
e|-------------------------------------------------------| 
B|-------------------------------------------------------| 
G|-------------------------------------------------------| 
D|-------------------------------------------------------| 
A|---------------------------------------0-0-0-0-0-0-0-0-| 
D|-8~--------5~--------8~----5~----0~----0-0-0-0-0-0-0-0-| 
............... 

Chorus: 
e|---------------------------------------------------------------------------| 
B|---------------------------------------------------------------------------| 
G|---------------------------------------------------------------------------| 
D|---------------------------------------------------------------------------| 
A|-8x--8x--8x--8x--8x--8x--8-8-8-8-5x--5x--5x--5x--5x--5x--5-5-5-5-8-8-8-8-8-| 
D|-8x--8x--8x--8x--8x--8x--8-8-8-8-5x--5x--5x--5x--5x--5x--5-5-5-5-8-8-8-8-8-| 

e|-------------------------------------------------------| 
B|-------------------------------------------------------| 
G|-------------------------------------------------------| 
D|-------------------------------------------------------| 
A|-8-8-8-5-5-5-5-5-5-5-5-7-7-7-7-7-7-7-7-7-7-7-7-7-7-7-7-| 
D|-8-8-8-5-5-5-5-5-5-5-5-7-7-7-7-7-7-7-7-7-7-7-7-7-7-7-7-| 
............................... 

Bridge: (4x) 
e|-------------------------------| 
B|-------------------------------| 
G|-------------------------------| 
D|-------------------------------| 
A|-8-8-8-0--0-0-5--5-5-5-5-5-5-5-| 
D|-8-8-8-0--0-0-5--5-5-5-5-5-5-5-| 


2nd Verse: (4x) 2nd Verse Cont'd: (4x) 
e|---------------------------------|-------------------------------| 
B|---------------------------------|-------------------------------| 
G|---------------------------------|-------------------------------| 
D|---------------------------------|-------------------------------| 
A|-5-5-5-3-3-3-3-7-7-7-7-7-8-8-8-8-|-8-8-8-0--0-0-5--5-5-5-7-7-7-7-| 
D|---------------------------------|-8-8-8-0--0-0-5--5-5-5-7-7-7-7-| 
............................... 


2nd Chorus: 
e|---------------------------------------------------------------------------| 
B|---------------------------------------------------------------------------| 
G|---------------------------------------------------------------------------| 
D|---------------------------------------------------------------------------| 
A|-8-8-8-8-8-8-8-8-8-8-8-8-8-8-8-8-5-5-5-5-5-5-5-5-5-5-5-5-5-5-5-5-8-8-8-8-8-| 
D|-8-8-8-8-8-8-8-8-8-8-8-8-8-8-8-8-5-5-5-5-5-5-5-5-5-5-5-5-5-5-5-5-8-8-8-8-8-| 

e|---------------------------------------------------------------------------| 
B|---------------------------------------------------------------------------| 
G|---------------------------------------------------------------------------| 
D|---------------------------------------------------------------------------| 
A|-8-8-8-5-5-5-5-5-5-5-5-0-0-0-0-0-0-0-0-0-0-0-0-0-0-0-0-8-8-8-8-8-8-8-8-8-8-| 
D|-8-8-8-5-5-5-5-5-5-5-5-0-0-0-0-0-0-0-0-0-0-0-0-0-0-0-0-8-8-8-8-8-8-8-8-8-8-| 

e|---------------------------------------------------------------------------| 
B|---------------------------------------------------------------------------| 
G|---------------------------------------------------------------------------| 
D|---------------------------------------------------------------------------| 
A|-8-8-8-8-8-8-5-5-5-5-5-5-5-5-5-5-5-5-5-5-5-5-8-8-8-8-8-8-8-8-5-5-5-5-5-5-5-| 
D|-8-8-8-8-8-8-5-5-5-5-5-5-5-5-5-5-5-5-5-5-5-5-8-8-8-8-8-8-8-8-5-5-5-5-5-5-5-| 

e|-----------------------------------| 
B|-----------------------------------| 
G|-----------------------------------| 
D|-----------------------------------| 
A|-5-7-7-7-7-7-7-7-7-7-7-7-7-7-7-7-7-| 
D|-5-7-7-7-7-7-7-7-7-7-7-7-7-7-7-7-7-| 


Interlude: 
e|---------------------------------------------------------------------------| 
B|---------------------------------------------------------------------------| 
G|---------------------------------------------------------------------------| 
D|----------5-5-5----------5-5-5----------5-5-5----------5-5-5---------------| 
A|-0~-------3-3-3-0~-------3-3-3-0~-------3-3-3-0~-------3-3-3-0--0--0--0--0-| 
D|-0~-------------0~-------------0~-------------0~-------------0--0--0--0--0-| 
. ....... ....... ....... ................... 
e|---------------------------------------------------------------------------| 
B|---------------------------------------------------------------------------| 
G|------10--10--10---10--10--10---------------------10--10--10---9--9--9-----| 
D|-------x---x---x----x---x---x----------------------x---x---x---x--x--x-----| 
A|-0--0--8---8---8-0--8---8---8-0--0--0--0--0--0--0--8---8---8-0-7--7--7-0--0| 
D|-0--0------------0------------0--0--0--0--0--0--0------------0---------0--0| 
.... . ................... . .... 
e|---------------------------------------------------------------------------| 
B|---------------------------------------------------------------------------| 
G|---------------10--10--10---10--10--10---------------------10--10--10-10/12| 
D|----------------x---x---x----x---x---x----------------------x---x---x--x--x| 
A|-0--0--0--0--0--8---8---8-0--8---8---8-0--0--0--0--0--0--0--8---8---8--8/10| 
D|-0--0--0--0--0------------0------------0--0--0--0--0--0--0-----------------| 
............. . ................... 
e|-------------| 
B|-------------| 
G|-12-12-12-12-| 
D|--x--x--x--x-| 
A|-10-10-10-10-| 
D|-------------| 


Ending: (4x) End On: 
e|-------------------------------------------------------|--------| 
B|-------------------------------------------------------|--------| 
G|-------10-10-10-------10-10-10-------9-9-9-------9-7-7-|---3~---| 
D|--------x--x--x--------x--x--x-------x-x-x-------x-x-x-|---3~---| 
A|-8-8-8--8--8--8-5-5-5--8--8--8-7-7-7-7-7-7-0-0-0-7-5-5-|---1~---| 
D|-8-8-8----------5-5-5----------7-7-7-------0-0-0-------|--------| 


Outro: 
e|---------------------------------------------------------------------------| 
B|---------------------------------------------------------------------------| 
G|---------------------------------------------------------------------------| 
D|-----7-8-7-------7-8-7-------7-8-7-------0-5/7-5-3-----7-8-7-------7-8-7---| 
A|---8-------8---5-------5---7-------7---0-------------8-------8---5-------5-| 
D|-8-----------5-----------7-----------0-------------8-----------5-----------| 

e|-----------------------| 
B|-----------------------| 
G|-----------------------| 
D|-----7-8-7-----*12~----| 
A|---7-------7--*12~-----| 
D|-7-----------*12~------|
            
Submit corrections


        A Living Dance Upon Dead Minds lessons Hard to play? Try these video lessons and learn fast A Living Dance Upon Dead Minds lessons
        
↑ Back to top | Tablatures and chords for acoustic guitar and electric guitar, ukulele, drums are parodies/interpretations of the original songs. You may use it for private study, scholarship, research or language learning purposes only